Oops, an error
Loading. Please wait.

Holocaust Tab

version 1
version 1

Whole song

Interactive

1,218 views 1 this week
1 commentread comment
1 2 3 4 5
excellent!
x 2
add to favorites
launch autoscroll
font size
0
reset
how to read this tab
guitar tuner
Tab Pro tools
  • play this tab
  • loop segment
  • change instrument
  • show fretboard
  • metronome
Autoscroll
slow
fast
+/-
esc
set tempo
stop
Contributor
tune low E down to D
                                                                    three times
E-]-----------------------------|----------------------------------------------|
B-]-----------------------------|----------------------------------------------|
G-]---8--8----7-------7---7-7---|o---8--8-----7----------7----------7--7------o|
D-]---8--8----7-------7---7-7---|o---8--8-----7----------7----------7--7------o|
A-]---6--6----5-------5-X-5-5---|----6--6-----5------5-5-5-------5--5--5-------|
D-]-----------------------------|----------------------------------------------|


E-]-----------------------------|----------------------------------------------|
B-]-----------------------------|----------------------------------------------|
G-]---8--8----7 \---------------|o-----------------------8---10 \ 8 \ 7--------|
D-]---8--8----7 \---------------|o---------------------------------------------|
A-]---6--6----5 \---------------|------------------------6----8 \ 6 \ 5--------|
D-]-----------------------------|--0-0-2-0-3-2-0-1-----------------------------|
                                          Whats with.................jugdment..
                           four times   strum.............
E-]----------------------------------|-----------------------------------------|
B-]----------------------------------|---6----6---------6-------8------6-------|
G-]--------------------8--8----7 \--o|---7----5---------7-------7------5-------|
D-]--------------------8--8----7 \--o|---7----3---------7-------5------3-------|
A-]--------------------6--6----5 \---|---5--------------5----------------------|
D-]--0-0-2-0-3-2-0-1-----------------|-----------------0-----------------------|


E-]------------------------------------|---------------------------------------|
B-]------------------------------------|---------------------------------------|
G-]o-------------------8---10 \ 8 \ 7--|-----------------------8--8-----7 \---o|
D-]o-----------------------------------|-----------------------8--8-----7 \---o|
A-]------------------- 6----8 \ 6 \ 5--|-----------------------6--6-----5 \----|
D-]--0-0-2-0-3-2-0-1-------------------|-----0-0-2-0-3-2-0-1-------------------|
      March to the battle fields....
    strum............                                             Holocaust
E-]---------------------------------|------------------------------------------|
B-]--6----6--------6----8---8----7--|------------------------------------------|
G-]--7----5--------7----7---7----5--|o-----------------------8---10 \ 8 \ 7----|
D-]--7----3--------7----5-5-5----3--|o-----------------------------------------|
A-]--5-------------5----------------|------------------------6----8 \ 6 \ 5----|
D-]---------------0-----------------|--0-0-2-0-3-2-0-1-------------------------|

                         Final loss        What will the end bring....
E-]----------------------------------|-----------------------------------------|
B-]----------------------------10----|---10--8--7------------8--7--5-----------|
G-]--------------------8--8----7 \--o|-------------9--10--7------------7--8--5-|
D-]--------------------8--8----7 \--o|-----------------------------------------|
A-]--------------------6--6----5 \---|-----------------------------------------|
D-]--0-0-2-0-3-2-0-1-----------------|-----------------------------------------|


E-]-------------------------|--------------------------------------------------|
B-]---10--8--7--------------|----------5-----------5-----------5-----------5---|
G-]-------------9--10--7----|----------4-----------4-----------4-----------4---|
D-]-------------------------|----------2-----------2-----------2-----------2---|
A-]-------------------------|--0---0-0-0---0---0-0-0---0---0-0-0---0---0-0-0---|
D-]-------------------------|--------------------------------------------------|


E-]-------------------|--------------------------------------------------------|
B-]--2----------------|--------------------------------------------------------|
G-]--2----------------|-------7-----7-----7-----7------------------------------|
D-]--2----------------|-------7-----7-----7-----7------------------------------|
A-]--0----------------|-------5-----5-----5-----5-----6----8 / 6 / 5-----------|
D-]-------------------|--------------------------------------------------------|

                             Holocaust                             Final loss
E-]------------------------------------|---------------------------------------|
B-]------------------------------------|---------------------------------------|
G-]o-------------------8---10 \ 8 \ 7--|-----------------------8--8-----7 \---o|
D-]o-----------------------------------|-----------------------8--8-----7 \---o|
A-]------------------- 6----8 \ 6 \ 5--|-----------------------6--6-----5 \----|
D-]--0-0-2-0-3-2-0-1-------------------|-----0-0-2-0-3-2-0-1-------------------|
                                                solo...........................
                                    four times                       five times
E-]-------------------------------------------|--------------------------------|
B-]-------------------------------------------|--------------------------------|
G-]o--8----8------7------------7------7--7---o|o---8----8-----7-\-------------o|
D-]o--8----8------7------------7------7--7---o|o---8----8-----7 \-------------o|
A-]---6----6------5------5--5--5---5--5--5----|----6----6-----5 \--------------|
D-]-------------------------------------------|--------------------------------|

   ............................................................................
E-]------------------------------------|---------------------------------------|
B-]------------------------------------|---------------------------------------|
G-]o-------------------8---10 \ 8 \ 7--|-----------------------8--8-----7 \---o|
D-]o-----------------------------------|-----------------------8--8-----7 \---o|
A-]------------------- 6----8 \ 6 \ 5--|-----------------------6--6-----5 \----|
D-]--0-0-2-0-3-2-0-1-------------------|-----0-0-2-0-3-2-0-1-------------------|
     Listen to what I say.....
    strum............
E-]---------------------------------|------------------------------------------|
B-]--6----6--------6----8---8----7--|------------------------------------------|
G-]--7----5--------7----7---7----5--|o-----------------------8---10 \ 8 \ 7----|
D-]--7----3--------7----5-5-5----3--|o-----------------------------------------|
A-]--5-------------5----------------|------------------------6----8 \ 6 \ 5----|
D-]---------------0-----------------|--0-0-2-0-3-2-0-1-------------------------|
                                         You can run..............I'm so scared
                                         strum...............
E-]----------------------------------|-----------------------------------------|
B-]----------------------------------|----6----6-----------6----8---8----7-----|
G-]--------------------8--8----7 \--o|----7----5-----------7----7---7----5-----|
D-]--------------------8--8----7 \--o|----7----3-----------7----5-5-5----3-----|
A-]--------------------6--6----5 \---|----5----------------5-------------------|
D-]--0-0-2-0-3-2-0-1-----------------|--------------------0--------------------|

                             Holocaust                             Final loss
E-]------------------------------------|---------------------------------------|
B-]------------------------------------|---------------------------------------|
G-]o-------------------8---10 \ 8 \ 7--|-----------------------8--8-----7 \---o|
D-]o-----------------------------------|-----------------------8--8-----7 \---o|
A-]------------------- 6----8 \ 6 \ 5--|-----------------------6--6-----5 \----|
D-]--0-0-2-0-3-2-0-1-------------------|-----0-0-2-0-3-2-0-1-------------------|

        What will the end bring.......
E-]----------------------------------------------------------------------------|
B-]---10--8--7----------------8--7--5---------------10--8--7-------------------|
G-]---------------9--10--7---------------7--8--5----------------9--10--7-------|
D-]----------------------------------------------------------------------------|
A-]----------------------------------------------------------------------------|
D-]----------------------------------------------------------------------------|


E-]----------------------------------------------------|-----------------------|
B-]------------5-----------5-----------5-----------5---|---2-------------------|
G-]------------4-----------4-----------4-----------4---|---2-------------------|
D-]------------2-----------2-----------2-----------2---|---2-------------------|
A-]----0---0-0-0---0---0-0-0---0---0-0-0---0---0-0-0---|---0-------------------|
D-]----------------------------------------------------|-----------------------|


E-]----------------------------------------------------------------------------|
B-]----------------------------------------------------------------------------|
G-]-----------------7---------7---------7---------7----------------------------|
D-]-----------------7---------7---------7---------7----------------------------|
A-]-----------------5---------5---------5---------5------6----8 / 6 / 5--------|
D-]----------------------------------------------------------------------------|

                              Holocaust                            Final loss
E-]------------------------------------|---------------------------------------|
B-]------------------------------------|---------------------------------------|
G-]o-------------------8---10 \ 8 \ 7--|-----------------------8--8-----7 \---o|
D-]o-----------------------------------|-----------------------8--8-----7 \---o|
A-]------------------- 6----8 \ 6 \ 5--|-----------------------6--6-----5 \----|
D-]--0-0-2-0-3-2-0-1-------------------|-----0-0-2-0-3-2-0-1-------------------|
comments
We did not receive enough feedback on this tab! Please rate:
print report bad tab
1 2 3 4 5
1 comment total.
0 reply
ShowNoMercy666 wrote on January 29 2008, 08:03 pm

the tuning is Drop C which means tune all strings 1 step down and the low E string 2 steps down

C G C F A D

I want to post or [tab]
guest
You may want to rate the tab now too:
select rating
Please do not post tabs as comments. Select "correction" instead!