Oops, an error
Loading. Please wait.

Impulse Of Disembowel Tab

1,252 views 1 this week
1 commentread comment
1 2 3 4 5
please rate
add to favorites
launch autoscroll
font size
0
reset
how to read this tab
guitar tuner
Autoscroll
slow
fast
+/-
esc
set tempo
stop
Help us to improve Ultimate-Guitar.com Take our survey!
×
Author
TheMutts 13,491
                          SIX FEET UNDER - IMPULSE TO DISEMBOWEL
                             From the Album - TRUE CARNAGE
                              Copyright - METAL BLADE 2001
                                Version 1.0 Jan 15, 2003


Transcribed by: James Williams (Inverted)

For Questions, Comments, Newest Version, or Corrections contact
Inverted: at Inverted_one@hotmail.com

Check Out Death8699.com Metaltabs.com or dsrmusic.com for More
Transcriptions:http://www.Death8699.com http://www.Metaltabs.com
http://www.dsrmusic.com/metaltab

.  - palm mute           /  - slide up to
\  - slide down to       ~  - vibrato
h  - hammer on           b  - Bend
p  - pull off            Suffixes for bend
t  - tap                 f  - full bend    h - half bend
ph - pinched harmonic    q  - quarter bend t - tap bend
*  - see comment         ^  - Hold bend    r release bend
x  - Rest                ~  - vibrato bend
,  - slight palm mute    () - ghost note, sustained note
"  - tremolo note        <> - Trill

Tuning: "B"E"A"D"F#"B"


Riff 1-A
|--------------------------|--------------------------|
|--------------------------|--------------------------|
|--------------------------|--------------------------|
|--3--2x-------------------|----------------------2-2-|
|--3--2x-------------------|----------------------2-2-|
|--1--0x-------------------|----------------------0-0-|
|                                                 . . |
|                                                     |
|--------------------------|--------------------------|
|--------------------------|--------------------------|
|--------------------------|--------------------------|
|--3--2x---------------2-2-|--------------------------|
|--3--2x---------------2-2-|--3~------2~--------------|
|--1--0x---------------0-0-|------------------3~------|
                       . .

Riff 1-B
|--------------------------|--------------------------|
|--------------------------|--------------------------|
|--------------------------|--------------------------|
|--3--2x---------------2-2-|--3--2----------------2-2-|
|--3--2x---------------2-2-|--3--2----------------2-2-|
|--1--0x---------------0-0-|--1--0----------------0-0-|
|                      . .                        . . |
|                                                     |
|--------------------------|--------------------------|
|--------------------------|--------------------------|
|--------------------------|--------------------------|
|--3--2x---------------2-2-|--------------------------|
|--3--2x---------------2-2-|--3~------2~--------------|
|--1--0x---------------0-0-|------------------3~------|
                       . .

Riff 2-A
|--------------------------|--------------------------|
|--------------------------|--------------------------|
|--------------------------|--------------------------|
|--3--2--2--2--3--2--2--2--|--3--2--2--2--3--2--2--2--|
|--3--2--2--2--3--2--2--2--|--3--2--2--2--3--2--2--2--|
|--1--0--0--0--1--0--0--0--|--1--0--0--0--1--0--0--0--|
|        .  .  .  .  .  .     .  .  .  .  .  .  .  .  |
|                                                     |
|--------------------------|--------------------------|
|--------------------------|--------------------------|
|--------------------------|--------------------------|
|--3--2--2--2--3--2--2--2--|--ph------ph--------------|
|--3--2--2--2--3--2--2--2--|--3~------2~------ph------|
|--1--0--0--0--1--0--0--0--|------------------3~------|
   .  .  .  .  .  .  .  .

Riff 3
|--------------------------|--------------------------|
|--------------------------|--------------------------|
|--------------------------|--------------------------|
|-5------------------------|-6------------------------|
|-5------------------------|-6------------------------|
|-3----------------------0-|-4----------------------0-|
|                        .                          . |
|                                                     |
|--------------------------|--------------------------|
|--------------------------|--------------------------|
|--------------------------|--------------------------|
|-5------------------------|-8--------6---------------|
|-5------------------------|-8--------6---------------|
|-3----------------------0-|-6------0-4-------------0-|
                         .          .               .

Riff 2-B (Last Time)
|--------------------------|--------------------------|
|--------------------------|--------------------------|
|--------------------------|--------------------------|
|--3--2--2--2--3--2--2--2--|--3--2--2--2--3--2--2--2--|
|--3--2--2--2--3--2--2--2--|--3--2--2--2--3--2--2--2--|
|--1--0--0--0--1--0--0--0--|--1--0--0--0--1--0--0--0--|
|        .  .  .  .  .  .     .  .  .  .  .  .  .  .  |
|                                                     |
|--------------------------|--------------------------|
|--------------------------|--------------------------|
|--------------------------|--5-------4---------------|
|--3--2--2--2--3--2--2--2--|--5-------4-------5-------|
|--3--2--2--2--3--2--2--2--|--3-------2-------5-------|
|--1--0--0--0--1--0--0--0--|------------------3-------|
   .  .  .  .  .  .  .  .

Riff 4
|--------------------------------------|
|--------------------------------------|
|-----------5/3-----------6/5-------6--|
|-----------5/3-----------6/5-------6--|
|-----------3/1-----------4/3-------4--|
|--11111111------11111111------1111----|
   ........      ........      ....

Riff 5
|--------------------------------------|
|--------------------------------------|
|--------------------------------------|
|---------------6-------------5---3----|
|---------------6-------------5---3----|
|--555555555555-4----00000000-3-0-1----|
   ............      ........   .

Riff 4 (Last Time)
|-----------------------------------------------------|
|-----------------------------------------------------|
|-----------5/3-----------6/5-------6-----------------|
|-----------5/3-----------6/5-------6--------5--------|
|-----------3/1-----------4/3-------4--------5--------|
|--11111111------11111111------1111----------3--------|
   ........      ........      ....

End
|-----------|
|-----------|
|-----------|
|--3--2x----|
|--3--2x----|
|--1--0x----|


Back again to kill and gut
I crave intestine
Fist-fucked reduced to a stump
Kill - all

Skinless body
Naked hanging
Blood is draining
Carving, killing
Swollen beauty
Holes appearing
Brutalizing, convulsing
Skinned and greasy
Still breathing
Anal carving
Holes are oozing
Slit your throat - deep
Off came your head
Pulled out the guts
Right through your fucking neck!

Don't think I give a fuck about your life or religion
I don't fucking care about the world you fucking live in

Injecting bleach into your eyes - body starts to quiver
Spilled your guts onto the floor - consume the fecal drainage

Liver withered - appendix punctured, pancreatic explosion
Knife scraping spinal bone
Like nalls on a chalk board

The pigs they want to lock me up
But they still don't know who I am
I leave a trall of blood and guts - cold Impulse to disembowel


Check out my other tabs by: Deicide, Obituary, Hypocrisy,
Grave, Catastrophic, Six Feet Under, Incantation, Death,
Cannibal Corpse, Broken Hope, Cancer, Dark Tranquillity,
Malevolent Creation, Lowbrow and Unleashed.
Suggest correction new What's this?
You can suggest a correction to this tab. Community and Mods will review your correction and vote to approve or reject it.
comments
We did not receive enough feedback on this tab! Please rate:
print report bad tab
1 2 3 4 5
1 comment total.
0 reply
metalbodom014 53 wrote on January 26 2009, 03:30 pm

dude nice tabs. however if your going to write out a tab make sure you have the song title right. its impulse TO disembowel. not OF

guest
You may want to rate the tab now too:
select rating
Please do not post tabs as comments. Select "correction" instead!