Oops, an error
Loading. Please wait.

Lycanthropy Bass Tab

version 1
version 1

Whole song

Interactive

1,137 views 3 this week
no commentswrite comment
1 2 3 4 5
please rate
add to favorites
launch autoscroll
font size
0
reset
guitar tuner
Autoscroll
slow
fast
+/-
esc
set tempo
stop
Help us to improve Ultimate-Guitar.com Take our survey!
×
Author
Difficulty
WildIrish 3,976
novice
Six Feet Under -  Lycanthropy (live)

Tunes: D, G, C, F


INTRO: star whit the guitar and the doble bass drum:
|-------------------------------------------|
|-------------------------------------------|
|-------------------------------------------|
|-------------------------------------------| rest tru it

|-----------------------------------------|
|-----------------------------------------|
|-----------------------------------------|
|0000-000-0000000-000-00-1111-111-11-444--|

|-----------------------------------------------------|
|-----------------------------------------------------|
|-----------------------------------------------------|
|444-0000-000-0000000-000-00-1111-111-11-444-7/11\\0--|


|--------------------------------------------------------|
|--------------------------------------------------------|
|--------------------------------------------------------|
|00-0-00-00-0-00-0-00-00-0-00-111-11-11-1-444-44-44-4----|   x4

|------------------------------------------------------------------|
|------------------------------------------------------------------|
|1--0------------1--0-------------1--0------------1--0-------------|
|-----000000-1-0------000000-1-1-0-----000000-1-0------000000-9\\0-|

|-------------------------------------------------------------------------|
|-------------------------------------------------------------------------|
|-------------------------------------------------------------------------|
|-----------------------------------------------------------------7/11\\0-|

|--------------------------------------------------------|
|--------------------------------------------------------|
|--------------------------------------------------------|
|00-0-00-00-0-00-0-00-00-0-00-111-11-11-1-444-44-44-4----|   x4

|------------------------------------------------------------------|
|------------------------------------------------------------------|
|1--0------------1--0-------------1--0------------1--0-------------|
|-----000000-1-0------000000-1-1-0-----000000-1-0------000000-9\\0-|

|-----------------------------------|
|-----------------------------------|
|3~--------------4~-----------------|
|----0-0-0-1-0-0-----0-0-0-1-0-0----|   x2

|------------------------------------------------------------------|
|------------------------------------------------------------------|
|1--0------------1--0-------------1--0------------1--0-------------|
|-----000000-1-0------000000-1-1-0-----000000-1-0------000000-9\\0-|

|-------------------------------|  |---------------------------------------|
|-------------------------------|  |---------------------------------------|
|3~--------------4~-------------|  |------------STOP----PLAYING------------|
|----0-0-0-1-0-0-----0-0-0-1-0-0|x2|---------------------------------------|x2

|-------------------------------------------|
|-------------------------------------------|
|-------------------------------------------|
|0000-000-0000000-000-00-1111-111-11-444----|

|----------------------------------------------------|
|----------------------------------------------------|
|----------------------------------------------------|
|444-0000-000-0000000-000-00-1111-111-11-444-7/11\\0-|


|----------------------------------------------------|
|----------------------------------------------------|
|----------------------------------------------------|
|00-0-00-00-0-00-0-00-00-0-00-111-11-11-1-444-44-44-4| x5

|------------------------------------------------------|
|------------------------------------------------------|
|------------------------------------------------------|
|00-0-00-00-0-00-0-00-00-0-00-111-11-11-1-444-44-44-4b~|

|--------------------|
|--------------------|
|--------------------|
|0000-0000-000000-(0)|
Suggest correction
What's this?
You can suggest a correction to this tab. Community and Mods will review your correction and vote to approve or reject it.
comments
We did not receive enough feedback on this tab! Please rate:
print report bad tab
1 2 3 4 5
guest
You may want to rate the tab now too:
select rating
Please do not post tabs as comments. Select "correction" instead!