Oops, an error
Loading. Please wait.

Shadow Of The Reaper Tab

version 2
version 2

Whole song

Interactive

1,599 views 1 this week
no commentswrite comment
1 2 3 4 5
excellent!
x 3
add to favorites
launch autoscroll
font size
0
reset
how to read this tab
guitar tuner
Autoscroll
slow
fast
+/-
esc
set tempo
stop
Help us to improve Ultimate-Guitar.com Take our survey!
×
Author
Difficulty
Tuning
intermediate
C F A# D# G C
This is my first guitar tab on this, so I hope it's decent.

Tuning (Low to High) C F A# D# G C

Verse
C  --------------------------------------------------------------------|
G  --------------------------------------------------------------------|
D# --------------------------------------------------------------------|
A# --------------------------------------------------------------------|
F  -----12---8---11---7---8---5---7*-----12---8---11---7---8---12---10-|
C  -0-0----0---0----0---0---0---0----0-0----0---0----0---0---0-10-0-8--|
    . .    .   .    .   .   .   .    . .    .   .    .   .   .    .

C  -------------------------------------------------------------------||
G  -------------------------------------------------------------------||
D# --------------------------------------------------7/9-9-9-9-101010-||
A# --------------------------------------------------X-X-X-X-X-X-X-X--||
F  -----12---8---11---7---8---5---7*-----12---8---11-5/7-7-7-7-8-8-8--||
C  -0-0----0---0----0---0---0---0----0-0----0---0---------------------||
    . .    .   .    .   .   .   .    . .    .   .

Chorus
C  ----------------------------------------------------------------------|
G  ----------------------------------------------------------------------|
D# ----------------------------------------------------------------------|
A# ----------------------------------------------------------------------|
F  -14--14-12p11----------------15--15-12p11----------------12--12-12p11-|
C  -12--12-------13-12-13-12-10-13--13-------13-12-13-12-10-10--10-------|
                 .  .  .  .  .               .  .  .  .  .

C  -----------------------------------||
G  -----------------------------------||
D# -----------------------------------||
A# -----------------------------------||
F  ----------------10-10----9---------||
C  -13-12-13-12-10-8--8-0-0-7-9-7-6-0-||
    .  .  .  .  .       . .

Interlude
C  ----------------------------------------------------------------------||
G  ----------------------------------------------------------------------||
D# ----------------------------------------------------------------------||
A# ----------------------------------------------------------------------||
F  ---------5-5-5-5---------8-8-8-8------------11-11-11-11------------11-||
C  -0-0-0-0---------7-7-7-7---------10-10-10-10------------13-13-13-13---||

Bridge 1                                                            2x
C  -------------------------------------------------------------------|
G  -------------------------------------------------------------------|
D# -------------------------------------------------------------------|
A# -------------------------------------------------------------------|
F  ---------12p8-------------11p7-------------8p7-------------7p5-----|
C  -0-0-0-0------0-0-0-0-0-0------0-0-0-0-0-0-----0-0-0-0-0-0-----0-0-|
    . . . .      . . . . . .      . . . . . .     . . . . . .     . .
                                                           2x
C  ---------------------------------------------------------||
G  ---------------------------------------------------------||
D# ---------------------------------------------------------||
A# ---------7-------------7-------------7-------------7-3-5-||
F  ---------5-------------5-------------5-------------5-1-3-||
C  -0-0-0-0-5-0-0-0-0-0-0-5-0-0-0-0-0-0-5-0-0-0-0-0-0-5-1-3-||
    . . . .   . . . . . .   . . . . . .   . . . . . .

Bridge 2
C  -------------|---------------------------------------------------------|
G  -------------|---------------------------------------------------------|
D# -------------|---------------------------------------------------------|
A# -7---------5-|-------------------------------3-------------------------|
F  -5----3----3-|-2-------------3---------------1---------------3---------|
C  -5----1------|-0-0-0-0-0-0-0-1-0-0-0-0-0-0-0---0-0-0-0-0-0-0-1-0-0-0-0-|

C  ------||
G  ------||
D# ------||
A# ------||
F  -3--3-||
C  -1--1-||

Solo
C  -16-15h16p15-------------------------------------------------------------|
G  -------------17-17h18p17-15-15h17p15-13-13h15p13-------------------------|
D# -------------------------------------------------16-16h17p16-14-14h16p14-|
A# -------------------------------------------------------------------------|
F  -------------------------------------------------------------------------|
C  -------------------------------------------------------------------------|

C  --------------------------------------------------||
G  --------------------------------------------------||
D# -13-13h14p13--------------------------------------||
A# -------------16-16h17p16-14--------------------12-||
F  -----------------------------14----14-12--15------||
C  --------------------------------------------------||
Suggest correction
What's this?
You can suggest a correction to this tab. Community and Mods will review your correction and vote to approve or reject it.
comments
We did not receive enough feedback on this tab! Please rate:
print report bad tab
1 2 3 4 5
guest
You may want to rate the tab now too:
select rating
Please do not post tabs as comments. Select "correction" instead!