Oops, an error
Loading. Please wait.

Esclavo De Tu Voz Tab

by Sixpack
13 views 1 this week
no commentswrite comment
1 2 3 4 5
3 more votes to show rating
add to favorites
launch autoscroll
font size
0
reset
how to read this tab
guitar tuner
×
Best way to learn
"Esclavo De Tu Voz"
Autoscroll
slow
fast
+/-
esc
set tempo
stop
Estrofa 1:
         G           D             Em
e------------------------------------------------------
B------------3-------------3-------------0-------------
G---------0------------2--------------0----------------
D------0------------0--------------0-------------------
A------------------------------------------------------
E--3------------2--------------0-----------------------
    Tú tienes esa cara,  esa cara que me gusta

         C           G            Am         D
e---------------------------------------------0-1-------
B----------1------------0-----------1-------3-----3-----
G--------0------------0-----------2-------2---------2-0-
D------2------------0-----------2-------0---------------
A---3------------2-----------0--------------------------
E-------------------------------------------------------
    Esa mirada rara,   Esa boca que me mata, amor

         G           D             Em
e-------------------------------------------------------
B------------3------------3------------0----------------
G---------0-----------2-------------0-------------------
D------0-----------0-------------0----------------------
A-------------------------------------------------------
E--3-----------2-------------0--------------------------
    Y sin querer me obligas ,   a humillarme por completo


         C           G            Am         E
e-------------------------------------------------------
B----------1------------0-----------1-------0-----0-----
G--------0------------0-----------2-------1---1---1-----
D------2------------0-----------2--------2-----2--2-----
A---3------------2-----------0--------------------2-----
E--------------------------------------0----------0-----
    Soy yo el que se muere,  por besarte una vez más


CORO

   A             E
Y no, no quiero ser (no quiero ser)
                 Em7    Bm      D
El tonto que no puede estar sin ti(estar sin ti)
                               Dm
Que piensas que soy un imbecil
              A                D
que cayó de amor por ti, tal vez,
         E
No es justo

     A            E
que tú pretendas que,
                         Em7     Bm       D
yo  sea el esclavo de tu voz, tu amigo fiel
                                 Dm           A
Que salga yo corriendo apenas llames otra vez
               Bm
Por qué eres así
                     D      Em
Por qué eres tan cruel conmigo

Estrofa 2:
         G           D             Em
e------------------------------------------------------
B------------3------------3------------0---------------
G---------0-----------2-------------0------------------
D------0-----------0-------------0---------------------
A------------------------------------------------------
E--3-----------2-------------0-------------------------
   Tienes una cara de querer decirme algo,

         C           G            Am         D
e---------------------------------------------0-1-------
B----------1------------0-----------1-------3-----3-----
G--------0------------0-----------2-------2---------2-0-
D------2------------0-----------2-------0---------------
A---3------------2-----------0--------------------------
E-------------------------------------------------------
   Pero abres esa boca para, hablar de alguien más, oh non,

         G           D             Em
e-------------------------------------------------------
B------------3------------3------------0----------------
G---------0-----------2-------------0-------------------
D------0-----------0-------------0----------------------
A-------------------------------------------------------
E--3-----------2-------------0--------------------------
   Clavas tus cuchillos tan profundos que me matan (matan)


         C           G            Am         E
e-------------------------------------------------------
B----------1------------0-----------1-------0-----0-----
G--------0------------0-----------2-------1---1---1-----
D------2-----------0-----------2--------2-----2--2------
A---3------------2-----------0--------------------2-----
E--------------------------------------0----------0-----
   A pesar de todo, tengo que disimular


CORO(x2)
Suggest correction
Give kudos to tab author, rate the tab!
1 2 3 4 5
comments
print report bad tab
guest
You may want to rate the tab now too:
select rating
Wanna post a correction for this tab? Suggest correction