Oops, an error
Loading. Please wait.

Dont Dream Its Over bass

version 1
version 1

Whole song

Interactive

2,630 views 6 this week
1 commentread comment
1 2 3 4 5
2 more votes to show rating
add to favorites
×
Save as Personal and add changes to this tab that will be seen only by you. Learn more ›
×
You can save this tab as Personal to edit and correct it or add notes. All changes will be seen only by you. Learn more »
launch autoscroll
font size
0
reset
guitar tuner
edit
Autoscroll
slow
fast
+/-
esc
set tempo
stop
Band   : Sixpence None The Richer
Song   : Don't Dream It's Over (Bass Tablature)
Tuning : Standard
Tabbed By : me_troa_geira

Intro : (wait for the guitar intro as repeated 2 times den go to verse)

Verse 1: 
G |-----------------------------------------------------------------|
D |-----------------------------------------------------------------| Repeat
A |----------------------5-----5—5-------2-----2—2------------------|  2 x 
E |-------1-----1—1-------------------------------------5-----5—5---|

Chorus :
G |--------------------------------------|
D |--------------------------------------| Repeat
A |-------2-----3-3------------5-5-------|   2 x
E |----------------------1---------------|  then

G |----------------------------------------------------------|
D |----------------------------------------------------------|
A |-------2-----3-3------------5-5-------2-----2-2-----------|
E |----------------------1------------------------------3----|

Verse 2:
G |-----------------------------------------------------------------|
D |-----------------------------------------------------------------| Repeat
A |----------------------5-----5—5-------2-----2—2------------------|  2 x 
E |-------1-----1—1-------------------------------------5-----5—5---|

Chorus :
G |--------------------------------------|
D |--------------------------------------| Repeat
A |-------2-----3-3------------5-5-------|   2 x
E |----------------------1---------------|  then

G |----------------------------------------------------------|
D |----------------------------------------------------------|
A |-------2-----3-3------------5-5-------2-----2-2-----------|
E |----------------------1------------------------------3----|

Adlib :
G |-----------------------------------------------------------------|
D |-----------------------------------------------------------------| Repeat
A |----------------------5-----5—5-------2-----2—2------------------|   2 x 
E |-------1-----1—1-------------------------------------5-----5—5---|

G |--------------------------------------|
D |--------------------------------------| Repeat
A |-------2-----3-3------------5-5-------|   2 x
E |----------------------1---------------|  then

G |--------------------------------------|
D |--------------------------------------|
A |-------2-----3-3----------------------|
E |----------------------1-(pause)-------|

(Repeat Verse 1 and Chorus)

Outro :
G |--------------------------------------|
D |--------------------------------------| 
A |-------2-----3-3------------5-5-------|   
E |----------------------1---------------|

(Repeat as often times till fades out)

well, that's it!!! Any corrections just feel free to change it...thanx!!!

TROA=) (electrogenesis)

            
            
Suggest correction
Creating personal tab
Creating personal tab
You can edit any tab online and save it as your Personal.

You can edit, replace or remove any tab part or add personal notes – all changes will be seen only by you.

Personal tabs can be accessed anytime from any device, even offline.
Learn more »
Give kudos to tab author, rate the tab!
1 2 3 4 5
comments
print report bad tab
1 comment total.
0 reply
dashulic 60 Jan 03, 2011 05:07 PM

There is no B note in this song. but there is a Bb - your 2 fret on A string is supposed to be 1st fret. Other than that looks ok. Simple.

guest
Wanna post a correction for this tab? Suggest correction