Oops, an error
Loading. Please wait.

Melody Of You tab

version 1
version 1

Whole song

Interactive

9,512 views 6 this week
no commentswrite comment
1 2 3 4 5
x 8
add to favorites
×
Save as Personal and add changes to this tab that will be seen only by you. Learn more ›
×
You can save this tab as Personal to edit and correct it or add notes. All changes will be seen only by you. Learn more »
launch autoscroll
font size
0
reset
how to read this tab
guitar tuner
edit
Autoscroll
slow
fast
+/-
esc
set tempo
stop
Melody Of You - Sixpence None The Ricker

Standard tuning - Capo 2nd

Intro:
  ' ` ' ` ' ` ' `   ' ` ' ` ' ` ' `   ' ` ' ` ' ` ' `   ' ` ' ` ' ` ' ` 
|-----------------|-----------0-----|-2---------2-----|-0---------------|
|-0---------0-----|-2-----3---------|-------0---------|-------3---2-----|
|-------0---------|-------------0---|-----0-------0---|-----0-------0---|
|-----0-------0---|-----0-----------|-----------------|-----------------|
|-----------------|-----------------|-----------------|-----------------|
|-3-------3-------|-3-------3-------|-3-------3-------|-3-------3-------|

                                                        Verse 1:
                                                                You're a 
  ' ` ' ` ' ` ' `   ' ` ' ` ' ` ' `   ' ` ' ` ' ` ' `   ' ` ' ` ' ` ' ` 
|-----------------|-----------0-----|-2---------2-----|-0---------------|
|-0---------0-----|-2-----3---------|-------0---------|-------3---2-----|
|-------0---------|-------------0---|-----0-------0---|-----0-------0---|
|-----0-------0---|-----0-----------|-----------------|-----------------|
|-----------------|-----------------|-----------------|-----------------|
|-3-------3-------|-3-------3-------|-3-------3-------|-3-------3-------|

  painting with     sym-    bols      deep,         a   sym-          pho-
  ' ` ' ` ' ` ' `   ' ` ' ` ' ` ' `   ' ` ' ` ' ` ' `   ' ` ' ` ' ` ' ` 
|-----------------|-----------------|-----------------|-----------------|
|-0---------0-----|-------0---------|-------0---------|-2---------2-----|
|-------0---------|-2---------2-----|-0---------0-----|-------0---------|
|-----0-------0---|-----0-------0---|-----0-------0---|-----0-------0---|
|-----------------|-----------------|-----------------|-----------------|
|-3-------3-------|-3-------3-------|-3-------3-------|-3-------3-------|

  ny,               soft  as    it    shifts  from      dark    be- neath.
  ' ` ' ` ' ` ' `   ' ` ' ` ' ` ' `   ' ` ' ` ' ` ' `   ' ` ' ` ' ` ' ` 
|-----------------|-2-----3---2-----|-0---------0-----|-----------------|
|-3---------3-----|-----------------|-------1---------|-3---------3-----|
|-------0---------|-----0-------0---|-----0-------0---|-------2---------|
|-----0-------0---|-----------------|-----------------|-----0-------0---|
|-----------------|-----------------|-3-------3-------|-----------------|
|-3-------3-------|-3-------3-------|-----------------|-2-------2-------|

                A   po- em      that  flows,        ca- res-  sing  my
  ' ` ' ` ' ` ' `   ' ` ' ` ' ` ' `   ' ` ' ` ' ` ' `   ' ` ' ` ' ` ' ` 
|-----------------|-----------------|-----------------|-----------------|
|-0---------0-----|-------0---------|-------0---------|-2-----3---2-----|
|-------0---------|-2---------2-----|-0---------0-----|-----------------|
|-----0-------0---|-----0-------0---|-----0-------0---|-----0-------0---|
|-----------------|-----------------|-----------------|-----------------|
|-3-------3-------|-3-------3-------|-3-------3-------|-3-------3-------|

  skin.         In  all   of    these things  you re-   side.   And I
  ' ` ' ` ' ` ' `   ' ` ' ` ' ` ' `   ' ` ' ` ' ` ' `   ' ` ' ` ' ` ' ` 
|-----------------|-2-----3---2-----|-0---------0-----|-2---------------|
|-0---------0-----|-----------------|-------1---------|---------2---3---|
|-------0---------|-----0-------0---|-----0-------0---|-------3---------|
|-----0-------0---|-----------------|-----------------|-----4-----------|
|-----------------|-----------------|-3-------3-------|-----------------|
|-3-------3-------|-3-------3-------|-----------------|-2-------2-------|

          want to   flow    from the  pen, the bow and  brush.      Then
  ' ` ' ` ' ` ' `   ' ` ' ` ' ` ' `   ' ` ' ` ' ` ' `   ' ` ' ` ' ` ' ` 
|-----------------|-----------------|-----------------|-----------------|
|-3---------3-----|-3---------3-----|-2---------2-----|-2---------2-----|
|-------4---------|-------4---------|-------0---------|-------3---------|
|-----4-------4---|-----4-------4---|-----2-------2---|-----2-------2---|
|-2-------2-------|-0-------0-------|-----------------|-----------------|
|-----------------|-----------------|-0-------0-------|-2-------2-------|

  pa-     per and   string      and   can-    vas       touch.      With  
  ' ` ' ` ' ` ' `   ' ` ' ` ' ` ' `   ' ` ' ` ' ` ' `   ' ` ' ` ' ` ' ` 
|-----------------|-----------------|-----------------|-----------------|
|-3---------3-----|-3---------3-----|-2---------2-----|-2---------2-----|
|-------4---------|-------4---------|-------0---------|-------3---------|
|-----4-------4---|-----4-------4---|-----2-------2---|-----2-------2---|
|-2-------2-------|-0-------0-------|-----------------|-----------------|
|-----------------|-----------------|-0-------0-------|-2-------2-------|

  ink     in  the   air         to    dust  your  light
  ' ` ' ` ' ` ' `   ' ` ' ` ' ` ' `   ' ` ' ` ' ` ' `   ' ` ' ` ' ` ' ` 
|-----------------|-----------------|-----------------|-----------------|
|-3---------3-----|-3---------3-----|-2---------2-----|-2---------2-----|
|-------4---------|-------4---------|-------0---------|-------4---------|
|-----4-------4---|-----4-------4---|-----2-------2---|-----2-------2---|
|-2-------2-------|-0-------0-------|-----------------|-----------------|
|-----------------|-----------------|-0-------0-------|-2-------2-------|

              from  morning til the   black of    night.
  ' ` ' ` ' ` ' `   ' ` ' ` ' ` ' `   ' ` ' ` ' ` ' `   
|-----------------|-----------------|-2---------------||
|-2---------2-----|-2---------2-----|-----------------||
|-------4---------|-------3---------|-----------------||
|-----2-------2---|-----2-------2---|-----------------||
|-----------------|-----------------|-----------------||
|-2-------2-------|-2-------2-------|-----------------||

Chorus:
                    This  is    my    call,   I   be-   long    to  you
  ' ` ' ` ' ` ' `   ' ` ' ` ' ` ' `   ' ` ' ` ' ` ' `   ' ` ' ` ' ` ' ` 
|-----------------|-----------0-----|-2---------0-----|-----------------|
|-0---------0-----|-2-----3---------|-------3---------|-2---------2-----|
|-------0---------|-------------0---|-----2-------2---|-------3---------|
|-----0-------0---|-----0-----------|-0-------0-------|-----2-------2---|
|-----------------|-----------------|-----------------|-----------------|
|-3-------3-------|-3-------3-------|-----------------|-2-------2-------|

                    This  is    my    call to sing the  melodies    of
  ' ` ' ` ' ` ' `   ' ` ' ` ' ` ' `   ' ` ' ` ' ` ' `   ' ` ' ` ' ` ' ` 
|-----------------|-----------0-----|-2---------0-----|-----------------|
|-0---------0-----|-2-----3---------|-------3---------|-2---------2-----|
|-------0---------|-------------0---|-----2-------2---|-------3---------|
|-----0-------0---|-----0-----------|-0-------0-------|-----2-------2---|
|-----------------|-----------------|-----------------|-----------------|
|-3-------3-------|-3-------3-------|-----------------|-2-------2-------|

  you.              This  is    my    call    I   can   do    nothing
  ' ` ' ` ' ` ' `   ' ` ' ` ' ` ' `   ' ` ' ` ' ` ' `   ' ` ' ` ' ` ' ` 
|-----------------|-----------0-----|-2---------0-----|-----------------|
|-0---------0-----|-2-----3---------|-------3---------|-2---------2-----|
|-------0---------|-------------0---|-----2-------2---|-------3---------|
|-----0-------0---|-----0-----------|-0-------0-------|-----2-------2---|
|-----------------|-----------------|-----------------|-----------------|
|-3-------3-------|-3-------3-------|-----------------|-2-------2-------|

  else.                                       I can     do    nothing 
  ' ` ' ` ' ` ' `   ' ` ' ` ' ` ' `   ' ` ' ` ' ` ' `   ' ` ' ` ' ` ' ` 
|-----------------|-----------------|-----------------|-----------------|
|-0---------0-----|-2-----3---2-----|-0---------0-----|-0---------------|
|-------0---------|-----------------|-------2---------|-2---------------|
|-----0-------0---|-----0-------0---|-----2-------2---|-2---------------|
|-----------------|-----------------|-0-------0-------|-0---------------|
|-3-------3-------|-3-------3-------|-----------------|-----------------|

  else
  ' ` ' ` ' ` ' `   ' ` ' ` ' ` ' `   ' ` ' ` ' ` ' `   ' ` ' ` ' ` ' ` 
|-----------------|-----------0-----|-2---------2-----|-0---------------|
|-0---------0-----|-2-----3---------|-------0---------|-------3---2-----|
|-------0---------|-------------0---|-----0-------0---|-----0-------0---|
|-----0-------0---|-----0-----------|-----------------|-----------------|
|-----------------|-----------------|-----------------|-----------------|
|-3-------3-------|-3-------3-------|-3-------3-------|-3-------3-------|

                                                       Verse 2:
                                                                You're the
  ' ` ' ` ' ` ' `   ' ` ' ` ' ` ' `   ' ` ' ` ' ` ' `   ' ` ' ` ' ` ' ` 
|-----------------|-----------0-----|-2---------2-----|-0---------------|
|-0---------0-----|-2-----3---------|-------0---------|-------3---2-----|
|-------0---------|-------------0---|-----0-------0---|-----0-------0---|
|-----0-------0---|-----0-----------|-----------------|-----------------|
|-----------------|-----------------|-----------------|-----------------|
|-3-------3-------|-3-------3-------|-3-------3-------|-3-------3-------|

  scent of    an    un-     found     bloom,        a   sim-          ple
  ' ` ' ` ' ` ' `   ' ` ' ` ' ` ' `   ' ` ' ` ' ` ' `   ' ` ' ` ' ` ' ` 
|-----------------|-----------------|-----------------|-----------------|
|-0---------0-----|-------0---------|-------0---------|-2---------2-----|
|-------0---------|-2---------2-----|-0---------0-----|-------0---------|
|-----0-------0---|-----0-------0---|-----0-------0---|-----0-------0---|
|-----------------|-----------------|-----------------|-----------------|
|-3-------3-------|-3-------3-------|-3-------3-------|-3-------3-------|

  tune,             I     on-   ly    write   va- ri-   a-    tions to
  ' ` ' ` ' ` ' `   ' ` ' ` ' ` ' `   ' ` ' ` ' ` ' `   ' ` ' ` ' ` ' ` 
|-----------------|-2-----3---2-----|-0---------0-----|-----------------|
|-3---------3-----|-----------------|-------1---------|-3---------3-----|
|-------0---------|-----0-------0---|-----0-------0---|-------2---------|
|-----0-------0---|-----------------|-----------------|-----0-------0---|
|-----------------|-----------------|-3-------3-------|-----------------|
|-3-------3-------|-3-------3-------|-----------------|-2-------2-------|

                A   drink that  will  knock       me    down  on    the
  ' ` ' ` ' ` ' `   ' ` ' ` ' ` ' `   ' ` ' ` ' ` ' `   ' ` ' ` ' ` ' ` 
|-----------------|-----------------|-----------------|-----------------|
|-0---------0-----|-------0---------|-------0---------|-2-----3---2-----|
|-------0---------|-2---------2-----|-0---------0-----|-----------------|
|-----0-------0---|-----0-------0---|-----0-------0---|-----0-------0---|
|-----------------|-----------------|-----------------|-----------------|
|-3-------3-------|-3-------3-------|-3-------3-------|-3-------3-------|

  floor.        A   key   that  will  unlock  the door  where I
  ' ` ' ` ' ` ' `   ' ` ' ` ' ` ' `   ' ` ' ` ' ` ' `   ' ` ' ` ' ` ' ` 
|-----------------|-2-----3---2-----|-0---------0-----|-2---------------|
|-0---------0-----|-----------------|-------1---------|---------2---3---|
|-------0---------|-----0-------0---|-----0-------0---|-------3---------|
|-----0-------0---|-----------------|-----------------|-----4-----------|
|-----------------|-----------------|-3-------3-------|-----------------|
|-3-------3-------|-3-------3-------|-----------------|-2-------2-------|

          hear  a   voice   sing fa-  miliar  things.               Then
  ' ` ' ` ' ` ' `   ' ` ' ` ' ` ' `   ' ` ' ` ' ` ' `   ' ` ' ` ' ` ' ` 
|-----------------|-----------------|-----------------|-----------------|
|-3---------3-----|-3---------3-----|-2---------2-----|-2---------2-----|
|-------4---------|-------4---------|-------0---------|-------3---------|
|-----4-------4---|-----4-------4---|-----2-------2---|-----2-------2---|
|-2-------2-------|-0-------0-------|-----------------|-----------------|
|-----------------|-----------------|-0-------0-------|-2-------2-------|

  bec-  kons  me    weave       notes in    be-   tween.            A
  ' ` ' ` ' ` ' `   ' ` ' ` ' ` ' `   ' ` ' ` ' ` ' `   ' ` ' ` ' ` ' ` 
|-----------------|-----------------|-----------------|-----------------|
|-3---------3-----|-3---------3-----|-2---------2-----|-2---------2-----|
|-------4---------|-------4---------|-------0---------|-------3---------|
|-----4-------4---|-----4-------4---|-----2-------2---|-----2-------2---|
|-2-------2-------|-0-------0-------|-----------------|-----------------|
|-----------------|-----------------|-0-------0-------|-2-------2-------|

  bow   and   a     string,     a     tap   and   glass.
  ' ` ' ` ' ` ' `   ' ` ' ` ' ` ' `   ' ` ' ` ' ` ' `   ' ` ' ` ' ` ' ` 
|-----------------|-----------------|-----------------|-----------------|
|-3---------3-----|-3---------3-----|-2---------2-----|-2---------2-----|
|-------4---------|-------4---------|-------0---------|-------4---------|
|-----4-------4---|-----4-------4---|-----2-------2---|-----2-------2---|
|-2-------2-------|-0-------0-------|-----------------|-----------------|
|-----------------|-----------------|-0-------0-------|-2-------2-------|

              You   pour me til the   day   has   passed
  ' ` ' ` ' ` ' `   ' ` ' ` ' ` ' `   ' ` ' ` ' ` ' `   
|-----------------|-----------------|-2---------------||
|-2---------2-----|-2---------2-----|-----------2-----||
|-------4---------|-------3---------|-------3---------||
|-----2-------2---|-----2-------2---|-----2-------2---||
|-----------------|-----------------|-----------------||
|-2-------2-------|-2-------2-------|-2-------2-------||

Chorus:
                    This  is    my    call,   I   be-   long    to  you
  ' ` ' ` ' ` ' `   ' ` ' ` ' ` ' `   ' ` ' ` ' ` ' `   ' ` ' ` ' ` ' ` 
|-----------------|-----------0-----|-2---------0-----|-----------------|
|-0---------0-----|-2-----3---------|-------3---------|-2---------2-----|
|-------0---------|-------------0---|-----2-------2---|-------3---------|
|-----0-------0---|-----0-----------|-0-------0-------|-----2-------2---|
|-----------------|-----------------|-----------------|-----------------|
|-3-------3-------|-3-------3-------|-----------------|-2-------2-------|

                    This  is    my    call to sing the  melodies    of
  ' ` ' ` ' ` ' `   ' ` ' ` ' ` ' `   ' ` ' ` ' ` ' `   ' ` ' ` ' ` ' ` 
|-----------------|-----------0-----|-2---------0-----|-----------------|
|-0---------0-----|-2-----3---------|-------3---------|-2---------2-----|
|-------0---------|-------------0---|-----2-------2---|-------3---------|
|-----0-------0---|-----0-----------|-0-------0-------|-----2-------2---|
|-----------------|-----------------|-----------------|-----------------|
|-3-------3-------|-3-------3-------|-----------------|-2-------2-------|

  you.              This  is    my    call    I   can   do    nothing
  ' ` ' ` ' ` ' `   ' ` ' ` ' ` ' `   ' ` ' ` ' ` ' `   ' ` ' ` ' ` ' ` 
|-----------------|-----------0-----|-2---------0-----|-----------------|
|-0---------0-----|-2-----3---------|-------3---------|-2---------2-----|
|-------0---------|-------------0---|-----2-------2---|-------3---------|
|-----0-------0---|-----0-----------|-0-------0-------|-----2-------2---|
|-----------------|-----------------|-----------------|-----------------|
|-3-------3-------|-3-------3-------|-----------------|-2-------2-------|

  else.                                       I can     do    nothing 
  ' ` ' ` ' ` ' `   ' ` ' ` ' ` ' `   ' ` ' ` ' ` ' `   ' ` ' ` ' ` ' ` 
|-----------------|-----------------|-----------------|-----------------|
|-0---------0-----|-2-----3---2-----|-0---------0-----|-0---------0-----|
|-------0---------|-----------------|-------2---------|-------2---------|
|-----0-------0---|-----0-------0---|-----2-------2---|-----2-------2---|
|-----------------|-----------------|-0-------0-------|-0-------0-------|
|-3-------3-------|-3-------3-------|-----------------|-----------------|

Interlude:
  else
  ' ` ' ` ' ` ' `   ' ` ' ` ' ` ' `   ' ` ' ` ' ` ' `   ' ` ' ` ' ` ' ` 
|-----------------|-----------0-----|-2---------------|-0---------------|
|-0---------0-----|-2-----3---------|-----------3-----|-------3---2-----|
|-------0---------|-------------0---|-------4---------|-----------------|
|-----0-------0---|-----0-----------|-----4--------4--|-----4-------4---|
|-----------------|-----------------|-2-------2-------|-0-------0-------|
|-3-------3-------|-3-------3-------|-----------------|-----------------|


  ' ` ' ` ' ` ' `   ' ` ' ` ' ` ' `   ' ` ' ` ' ` ' `   ' ` ' ` ' ` ' ` 
|-----------------|-----------0-----|-2---------------|-0---------------|
|-0---------0-----|-2-----3---------|-----------3-----|-------3---2-----|
|-------0---------|-------------0---|-------4---------|-----------------|
|-----0-------0---|-----0-----------|-----4--------4--|-----4-------4---|
|-----------------|-----------------|-2-------2-------|-0-------0-------|
|-3-------3-------|-3-------3-------|-----------------|-----------------|


  ' ` ' ` ' ` ' `   ' ` ' ` ' ` ' `   ' ` ' ` ' ` ' `   ' ` ' ` ' ` ' ` 
|-----------------|-----------0-----|-2---------------|-0---------------|
|-0---------0-----|-2-----3---------|-----------3-----|-------3---2-----|
|-------0---------|-------------0---|-------4---------|-----------------|
|-----0-------0---|-----0-----------|-----4--------4--|-----4-------4---|
|-----------------|-----------------|-2-------2-------|-0-------0-------|
|-3-------3-------|-3-------3-------|-----------------|-----------------|


  ' ` ' ` ' ` ' `   ' ` ' ` ' ` ' `   ' ` ' ` ' ` ' `   ' ` ' ` ' ` ' ` 
|-----------------|-----------------|-----------------|-----------------|
|-3---------3-----|-2---------2-----|-2---------2-----|-2---------2-----|
|-------0---------|-------0---------|-------3---------|-------3---------|
|-----4-------4---|-----4-------4---|-----2-------2---|-----2-------2---|
|-----------------|-----------------|-----------------|-----------------|
|-3-------3-------|-3-------3-------|-2-------2-------|-2-------2-------|


  ' ` ' ` ' ` ' `   ' ` ' ` ' ` ' `   ' ` ' ` ' ` ' `   ' ` ' ` ' ` ' ` 
|-----------------|-----------------|-----------------|-2---------------|
|-3---------3-----|-2---------2-----|-2---------2-----|-----------------|
|-------0---------|-------0---------|-------3---------|-----------------|
|-----4-------4---|-----4-------4---|-----2-------2---|-----------------|
|-----------------|-----------------|-----------------|-----------------|
|-3-------3-------|-3-------3-------|-2-------2-------|-----------------|

Chorus:
                    This  is    my    call,   I   be-   long    to  you
  ' ` ' ` ' ` ' `   ' ` ' ` ' ` ' `   ' ` ' ` ' ` ' `   ' ` ' ` ' ` ' ` 
|-----------------|-----------0-----|-2---------0-----|-----------------|
|-0---------0-----|-2-----3---------|-------3---------|-2---------2-----|
|-------0---------|-------------0---|-----2-------2---|-------3---------|
|-----0-------0---|-----0-----------|-0-------0-------|-----2-------2---|
|-----------------|-----------------|-----------------|-----------------|
|-3-------3-------|-3-------3-------|-----------------|-2-------2-------|

                    This  is    my    call to sing the  melodies    of
  ' ` ' ` ' ` ' `   ' ` ' ` ' ` ' `   ' ` ' ` ' ` ' `   ' ` ' ` ' ` ' ` 
|-----------------|-----------0-----|-2---------0-----|-----------------|
|-0---------0-----|-2-----3---------|-------3---------|-2---------2-----|
|-------0---------|-------------0---|-----2-------2---|-------3---------|
|-----0-------0---|-----0-----------|-0-------0-------|-----2-------2---|
|-----------------|-----------------|-----------------|-----------------|
|-3-------3-------|-3-------3-------|-----------------|-2-------2-------|

  you.              This  is    my    call    I   can   do    nothing
  ' ` ' ` ' ` ' `   ' ` ' ` ' ` ' `   ' ` ' ` ' ` ' `   ' ` ' ` ' ` ' ` 
|-----------------|-----------0-----|-2---------0-----|-----------------|
|-0---------0-----|-2-----3---------|-------3---------|-2---------2-----|
|-------0---------|-------------0---|-----2-------2---|-------3---------|
|-----0-------0---|-----0-----------|-0-------0-------|-----2-------2---|
|-----------------|-----------------|-----------------|-----------------|
|-3-------3-------|-3-------3-------|-----------------|-2-------2-------|

  else.                                       I can     do    nothing 
  ' ` ' ` ' ` ' `   ' ` ' ` ' ` ' `   ' ` ' ` ' ` ' `   ' ` ' ` ' ` ' ` 
|-----------------|-----------------|-----------------|-----------------|
|-0---------0-----|-2-----3---2-----|-0---------0-----|-0---------0-----|
|-------0---------|-----------------|-------2---------|-------2---------|
|-----0-------0---|-----0-------0---|-----2-------2---|-----2-------2---|
|-----------------|-----------------|-0-------0-------|-0-------0-------|
|-3-------3-------|-3-------3-------|-----------------|-----------------|

  else.             This  is    my    call,   I   be-   long    to  you
  ' ` ' ` ' ` ' `   ' ` ' ` ' ` ' `   ' ` ' ` ' ` ' `   ' ` ' ` ' ` ' ` 
|-----------------|-----------0-----|-2---------0-----|-----------------|
|-0---------0-----|-2-----3---------|-------3---------|-2---------2-----|
|-------0---------|-------------0---|-----2-------2---|-------3---------|
|-----0-------0---|-----0-----------|-0-------0-------|-----2-------2---|
|-----------------|-----------------|-----------------|-----------------|
|-3-------3-------|-3-------3-------|-----------------|-2-------2-------|

                    This  is    my    call to sing the  melodies    of
  ' ` ' ` ' ` ' `   ' ` ' ` ' ` ' `   ' ` ' ` ' ` ' `   ' ` ' ` ' ` ' ` 
|-----------------|-----------0-----|-2---------0-----|-----------------|
|-0---------0-----|-2-----3---------|-------3---------|-2---------2-----|
|-------0---------|-------------0---|-----2-------2---|-------3---------|
|-----0-------0---|-----0-----------|-0-------0-------|-----2-------2---|
|-----------------|-----------------|-----------------|-----------------|
|-3-------3-------|-3-------3-------|-----------------|-2-------2-------|

  you.              This  is    my    call    I   can   do    nothing
  ' ` ' ` ' ` ' `   ' ` ' ` ' ` ' `   ' ` ' ` ' ` ' `   ' ` ' ` ' ` ' ` 
|-----------------|-----------0-----|-2---------0-----|-----------------|
|-0---------0-----|-2-----3---------|-------3---------|-2---------2-----|
|-------0---------|-------------0---|-----2-------2---|-------3---------|
|-----0-------0---|-----0-----------|-0-------0-------|-----2-------2---|
|-----------------|-----------------|-----------------|-----------------|
|-3-------3-------|-3-------3-------|-----------------|-2-------2-------|

  else.                                       I can     do    nothing 
  ' ` ' ` ' ` ' `   ' ` ' ` ' ` ' `   ' ` ' ` ' ` ' `   ' ` ' ` ' ` ' ` 
|-----------------|-----------------|-----------------|-----------------|
|-0---------0-----|-2-----3---2-----|-0---------0-----|-0---------------|
|-------0---------|-----------------|-------2---------|-----------------|
|-----0-------0---|-----0-------0---|-----2-------2---|-----------------|
|-----------------|-----------------|-0-------0-------|-----------------|
|-3-------3-------|-3-------3-------|-----------------|-----------------|

  else
  ' ` ' ` ' ` ' `   ' ` ' ` ' ` ' `   ' ` ' ` ' ` ' `   ' ` ' ` ' ` ' ` 
|-----------------|-----------0-----|-2---------2-----|-0---------------|
|-0---------0-----|-2-----3---------|-------0---------|-------3---2-----|
|-------0---------|-------------0---|-----0-------0---|-----0-------0---|
|-----0-------0---|-----0-----------|-----------------|-----------------|
|-----------------|-----------------|-----------------|-----------------|
|-3-------3-------|-3-------3-------|-3-------3-------|-3-------3-------|


  ' ` ' ` ' ` ' `   ' ` ' ` ' ` ' `   ' ` ' ` ' ` ' `   ' ` ' ` ' ` ' ` 
|-----------------|-----------0-----|-2---------2-----|-0---------------|
|-0---------0-----|-2-----3---------|-------0---------|-------3---2-----|
|-------0---------|-------------0---|-----0-------0---|-----0-------0---|
|-----0-------0---|-----0-----------|-----------------|-----------------|
|-----------------|-----------------|-----------------|-----------------|
|-3-------3-------|-3-------3-------|-3-------3-------|-3-------3-------|

  La                la    la    la    la                la    la    la
  ' ` ' ` ' ` ' `   ' ` ' ` ' ` ' `   ' ` ' ` ' ` ' `   ' ` ' ` ' ` ' ` 
|-----------------|-----------0-----|-2---------2-----|-0---------------|
|-0---------0-----|-2-----3---------|-------0---------|-------3---2-----|
|-------0---------|-------------0---|-----0-------0---|-----0-------0---|
|-----0-------0---|-----0-----------|-----------------|-----------------|
|-----------------|-----------------|-----------------|-----------------|
|-3-------3-------|-3-------3-------|-3-------3-------|-3-------3-------|

  la                la    la    la    la                la    la    la
  ' ` ' ` ' ` ' `   ' ` ' ` ' ` ' `   ' ` ' ` ' ` ' `   ' ` ' ` ' ` ' ` 
|-----------------|-----------0-----|-2---------2-----|-0---------------|
|-0---------0-----|-2-----3---------|-------0---------|-------3---2-----|
|-------0---------|-------------0---|-----0-------0---|-----0-------0---|
|-----0-------0---|-----0-----------|-----------------|-----------------|
|-----------------|-----------------|-----------------|-----------------|
|-3-------3-------|-3-------3-------|-3-------3-------|-3-------3-------|

  la
  ' ` ' ` ' ` ' `   ' ` ' ` ' ` ' `   ' ` ' ` ' ` ' `   ' ` ' ` ' ` ' ` 
|-----------------|-----------0-----|-2---------2-----|-0---------------|
|-0---------0-----|-2-----3---------|-------0---------|-------3---2-----|
|-------0---------|-------------0---|-----0-------0---|-----0-------0---|
|-----0-------0---|-----0-----------|-----------------|-----------------|
|-----------------|-----------------|-----------------|-----------------|
|-3-------3-------|-3-------3-------|-3-------3-------|-3-------3-------|


  ' ` ' ` ' ` ' `   ' ` ' ` ' ` ' `   ' ` ' ` ' ` ' `   ' ` ' ` ' ` ' ` 
|-----------------|-----------0-----|-2---------2-----|-0---------------|
|-0---------0-----|-2-----3---------|-------0---------|-------3---2-----|
|-------0---------|-------------0---|-----0-------0---|-----0-------0---|
|-----0-------0---|-----0-----------|-----------------|-----------------|
|-----------------|-----------------|-----------------|-----------------|
|-3-------3-------|-3-------3-------|-3-------3-------|-3-------3-------|


  ' ` ' ` ' ` ' `   ' ` ' ` ' ` ' `   ' ` ' ` ' ` ' `   ' ` ' ` ' ` ' ` 
|-----------------|-----------0-----|-2---------2-----|-0---------------|
|-0---------0-----|-2-----3---------|-------0---------|-------3---2-----|
|-------0---------|-------------0---|-----0-------0---|-----0-------0---|
|-----0-------0---|-----0-----------|-----------------|-----------------|
|-----------------|-----------------|-----------------|-----------------|
|-3-------3-------|-3-------3-------|-3-------3-------|-3-------3-------|


  ' ` ' ` ' ` ' `   ' ` ' ` ' ` ' `   ' ` ' ` ' ` ' `   ' ` ' ` ' ` ' ` 
|-----------------|-----------0-----|-2---------2-----|-0---------------|
|-0---------0-----|-2-----3---------|-------0---------|-------3---2-----|
|-------0---------|-------------0---|-----0-------0---|-----0-------0---|
|-----0-------0---|-----0-----------|-----------------|-----------------|
|-----------------|-----------------|-----------------|-----------------|
|-3-------3-------|-3-------3-------|-3-------3-------|-3-------3-------|

  ' ` ' ` ' ` ' `
|-----------------||
|-0---------------||
|-----------------||
|-----------------||
|-----------------||
|-3---------------||

            
            
Suggest correction
Creating personal tab
Creating personal tab
You can edit any tab online and save it as your Personal.

You can edit, replace or remove any tab part or add personal notes – all changes will be seen only by you.

Personal tabs can be accessed anytime from any device, even offline.
Learn more »
comments
print report bad tab
guest
You may want to rate the tab now too:
select rating
Wanna post a correction for this tab? Suggest correction