Oops, an error
Loading. Please wait.

Lamentos En Silencio Tab

version 1
version 1

Whole song

by Sixpunk
34 views 1 this week
no commentswrite comment
1 2 3 4 5
3 more votes to show rating
add to favorites
launch autoscroll
font size
0
reset
how to read this tab
guitar tuner
×
Best way to learn
"Lamentos En Silencio"
Autoscroll
slow
fast
+/-
esc
set tempo
stop
Bueno muchachos ahi esta el intro de la cancion espero
k lo entienda  es el intro 100% correcto pero ojala y lo
entiendan,cualkier cosa me consultan..disfrutenlo


Intro
e---8/9-8---------8/9-8---9/11-9-8--------
b-9-------9--9/11-------9-----------------
g-----------8-----------------------------


--8/9-8-----8/9-8---8----------------------
---------11-----11----11-9-8/9-8----9------
---------------------------------10--10-8-10


---------------------------------------
---9/11-9---11--11/9--9/11-9------9----
------------------------------8/10-----

---------------------------------------
-11/9-11/9--------9/11-9/11---9/11-9-8/9
-------------8/10-----------------------


1.36

----------9/11-------9/11---------
--9-9/8-9------9/8-9--------------
----------------------------------


-----8/9-8---8----------------------
---------11-----11-----9-8/9-8----9------
-------------------------------10--10-8-10


------------
---9/11-9---
------------
Suggest correction
Give kudos to tab author, rate the tab!
1 2 3 4 5
comments
print report bad tab
guest
You may want to rate the tab now too:
select rating
Wanna post a correction for this tab? Suggest correction