Oops, an error
Loading. Please wait.

Lamentos En Silencio Tab

version 2
version 2

Whole song

22 views 1 this week
no commentswrite comment
1 2 3 4 5
3 more votes to show rating
add to favorites
launch autoscroll
font size
0
reset
how to read this tab
guitar tuner
Autoscroll
slow
fast
+/-
esc
set tempo
stop
Help us to improve Ultimate-Guitar.com Take our survey!
×
Aqui les dejo la cancion completa con todo el solo.

saludos pa la gente de "Guion_Bajo"
la banda + elegante de iquitos
rodrigo vai, Rodrigo, Diego y joan pedazos de ociosos!!
ah y por supuesto yo ps tb soy de la banda, saludos tb
para mi plimo Giovanni Iturrino el mas vago de too el Peru!.


cualkier duda escriban a JOATIGER@

Viva el rock ksmres!
----------------------------------------------------------
*=vibras
^=levantas
/=deslizas
----------------------------------------------------------
Intro: G# - Fm - A#m - D#

Intro
E--8/9-8---------8/9-8---9/11-9-8-8/9-8----8/9/8--8-------------------
B-9-----9-9/11-9-------9----------------11------11-11-9-8/9/8---8-----
G--------8----------------------------------------------------10-10-8-

E---------------------------------------------------------------------
B-9/11-9-11-9-11^-11-9-11-9----9^-11-9-11^-9----9-11-9-11/12*-12/11-9-
G--------------------------8-10-------------8-10----------------------

E---------------------------------------------------------------------
B-/8------------------------------------------------------------------
G---------------------------------------------------------------------


Al decirme tiempo al tiempo Solo tengo tus recuerdos
      G#5                        F5
Y al mirarme en el espejo Solo se q a ti ya no te tengo
       A#5                      D#5
Cuantas veces he llorado Por haberme ilusionado
        G#5                     F5
de tu amor tan complicado del cual sali solo y mal parado
       A#5                          D#5
Coro:
Y ahora me doy cuenta que fue un grave error
   A#5                           D#5
por que me pasan estas cosas a mi?
   A#5                         D#5
Y ahora tengo miedo De volver a enamorarme
              G#5                  F5
De volver a ilusionarme Y no tenerte junto a mi
                  A#5          D#5
Cuando yo te recuerdo Solo viene los lamentos
               G#5                      F5
Lamentos en silencio Y un murmullo q dice mi amor
             A#5             D#5
Yo te espero.
         G#5 - F5 - A#5 - D#5

----------9/11-------9/11---------
--9-9/8-9------9/8-9--------------
----------------------------------


-----8/9-8---8----------------------
---------11-----11-----9-8/9-8----9------
-------------------------------10--10-8-10


------------
---9/11-9---
------------


Cuantas noches en mi cuarto
         G#5
lamentando tu engaño,
     F5
tal vez no intencionado
       A#5
pero a mi si que me hizo daño,
       D#5
disculpame mi amor que no quiera verte jamas
     G#5                  F5
saludarte de lo mas normal, dedicandome a conversar
   A#5                          D#5

Coro:
Y ahora me doy cuenta que fue un grave error
   A#5                           D#5
por que me pasan estas cosas a mi?
   A#5                         D#5
Y ahora tengo miedo De volver a enamorarme
              G#5                  F5
De volver a ilusionarme Y no tenerte junto a mi
                  A#5          D#5
Cuando yo te recuerdo Solo viene los lamentos
               G#5                      F5
Lamentos en silencio Y un murmullo q dice mi amor
             A#5             D#5

Solo:

E---------------------------------------------------------
B---------------------------------------------------------
G---------------------------------------------------------
D-6-5-6-3-6---6---6-------3----------------------6-8-6-8-6
A-----------6---4---3-4-6---6-4-3-4-3^-/11-11-------------
E---------------------------------------------------------

E---------------------------------------------------------
B---------------------------------------------------------
G----------------------------------8----------------------
D-8/-10--10-8-6-8-8-5-6-5---6-8/10---10-8-10/8-6-8/6---6--
A-------------------------8--------------------------8----
E---------------------------------------------------------

E---------------------------------------------------------
B----------8-9---9-11-9-11/13^-13-11-9-11-9--9---9-11-13-11
G-----8-10---------------------------------10--10---------
D-8-10---------8------------------------------------------
A---------------------------------------------------------
E---------------------------------------------------------

E--------------------------11-9-8-9-8--8------------------
B-9-11-9--9---9-8-11-9-8-9-----------11-11-9-11-9-8-9-8---
G-------10----------------------------------------------10
D---------------------------------------------------------
A---------------------------------------------------------
E---------------------------------------------------------

E---------------------------------------------------------
B-8-------------------------------------------------------
G---10-8-10-8---8-----------------------------------------
D-------------11-11-10-11-10-8-10-8---8-------------------
A-----------------------------------11-11-10-11-10-8-10-8-
E---------------------------------------------------------


E---------------------------------------------------------
B-----------------------/14-/13-/11-/9-/8-/9-/11-/13-/14--
G---------------------------------------------------------
D---------------------------------------------------------
A---8-----------------------------------------------------
E-11-11-9-11-9-8-9-8*-------------------------------------


E---------------------------11-----------------------11---
B-14-13-11-13-14-14-11-13-14--14-13-11-13-14-11-13-14-14--
G---------------------------------------------------------
D---------------------------------------------------------
A---------------------------------------------------------
E---------------------------------------------------------


E---------------------------------------------------------
B-13-11-14*-/14-/13-/11-/9-/8-/9-/11-/13-/14-14-13-11-13-14
G---------------------------------------------------------
D---------------------------------------------------------
A---------------------------------------------------------
E---------------------------------------------------------


E------------------11----------------11--------14/16*-----
B-11-13-14-11-13-14-13-11-14-11-13-14-14-13-11------------
G---------------------------------------------------------
D---------------------------------------------------------
A---------------------------------------------------------
E---------------------------------------------------------


Y ahora tengo miedo (tengo miedo),
                G#5
de volver a enamorarme (enamorarme)
                F5
de volver a ilusionarme (ilusionarme)
                  A#5
y no tenerte junto ami
      D#5
cuando yo te recuerdo (te recuerdo)
               G#5
solo vienen los lamentos (los lamentos)
                  F5
lamentos en silencio (en silencio)
               A#5
y un murmullo que dice mi amor yo te espero.   [FINAL]
       D#5                            G#5 - F5 - A#5 - D#5 - G#5


FINAL:

E----------9/11-------9/11---------
B--9-9/8-9------9/8-9--------------  X3
G----------------------------------
Suggest correction
Give kudos to tab author, rate the tab!
1 2 3 4 5
comments
print report bad tab
guest
You may want to rate the tab now too:
select rating
Wanna post a correction for this tab? Suggest correction