Oops, an error
Loading. Please wait.

Khatimah Cinta Tab

4,195 views 1 this week
no commentswrite comment
1 2 3 4 5
2 more votes to show rating
add to favorites
launch autoscroll
font size
0
reset
how to read this tab
guitar tuner
Autoscroll
slow
fast
+/-
esc
set tempo
stop
Help us to improve Ultimate-Guitar.com Take our survey!
×
Author
Difficulty
advanced
ni 1st chord aku,, klu de sala tu sory k, :)

Gm    355333
Dm    000231
E     022100
A     002220
A#    003331
F     033211


e|-------------13--12-----------------|
B|-11--11--11--------10--10--10--10---|
G|---12--12--12--------10--10--10--10-|     2X
D|------------------------------------|
A|------------------------------------|
E|------------------------------------|


e|------------------------------------|
B|-11--11--11--11----10--10--10--10---|
G|---12--12--12--12----10--10--10--10-|
D|------------------------------------|
A|------------------------------------|
E|------------------------------------|

  Oh kidung malam nyanyikan lagu
  rindu hatiku yang terpendam
  oh bintang malam lukis wajahku

e|---------------------|
B|-9-9-9-9-10-10-10-10-|
G|--9-9-9-9--9--9--9---|
D|---------------------|
A|---------------------|
E|---------------------|

  katakan aku... pergi....


  Bridge: Gm Dm X2


  Gm                           Dm
  Genggam lah cinta yang ku berikan
  Gm                     Dm
  simpan lah slalu dalam hati
  Gm                      Dm
  ku akan selalu dalam mimpimu..
  E             A
  menemani tidurmu...

  Chorus:
   Dm       A
  Sudah lah sudah...
   A#       F
  ku harus pergi...
   Gm                     A
  jangan kau tangisi aku lagi...


  Dm       A
  biar ku bawa
  A#          F
  sluruh cinta mu
  Gm                          A
  ku dakap dalam tidur panjangku...

  Ooohh...

  Bridge: Gm Dm


  chorus:
   Dm       A
  Sudah lah sudah...
   A#       F
  ku harus pergi...
   Gm                      A
  jangan kau tangisi aku lagi...


  Dm       A
  biar ku bawa
  A#          F
  sluruh cinta mu
  Gm                         A
  ku dakap dalam tidur panjangku...


  Dm        A
  Peluk tubuhku
  A#        F
  kucup bibirku
  Gm            A      Gm
  relakan saja aku pergi....
Suggest correction
Give kudos to tab author, rate the tab!
1 2 3 4 5
comments
print report bad tab
guest
You may want to rate the tab now too:
select rating
Wanna post a correction for this tab? Suggest correction