Oops, an error
Loading. Please wait.

I Wonder Bass Tab

version 1
version 1

Whole song

20,358 views 9 this week
2 commentsread comments
1 2 3 4 5
2 more votes to show rating
add to favorites
launch autoscroll
font size
0
reset
guitar tuner
Autoscroll
slow
fast
+/-
esc
set tempo
stop
Help us to improve Ultimate-Guitar.com Take our survey!
×
Author
I WONDER
SIXTO RODRIGUEZ
COLD FACT


G||---------2--4--6------------||
D||*--2--4-----------7--------*||
A||*--------------------9--7--*||
E||----------------------------||

repeat four times

|---------2--4--6-----------|--------2--4--6-----------|--------2--4--6-----------|
|---2--4-----------7--------|--2--4-----------7--------|--2--4-----------7--------|
|---------------------9--7--|--------------------9--7--|--------------------9--7--|
|---------------------------|--------------------------|--------------------------|

play once

||---------------------------|-------------2--4--6--------|--------------------------|
||*--7--------7--7-----------|--7----2--4-----------7-----|--0--------0--0--------0--|
||*-----------------------7--|-------------------------9--|--------------------------|
||---------------------------|----------------------------|--------------------------|

|-------------2--4--6--------|--------------------------|-------------2--4--6--------|
|--2----2--4-----------7-----|--7--------7--7--------7--|--7----2--4-----------7-----|
|-------------------------9--|--------------------------|-------------------------9--|
|----------------------------|--------------------------|----------------------------|

|--------------------------|-------------2--4--6--------|--------------------------|
|--0--------0--0--0--0--0--|--2----2--4-----------7-----|--7--------7--7--------7--|
|--------------------------|-------------------------9--|--------------------------|
|--------------------------|----------------------------|--------------------------|

|-------------2--4--6--------|--------------------------|-------------2--4--6--------|
|--7----2--4-----------7-----|--0--------0--0--------0--|--2----2--4-----------7-----|
|-------------------------9--|--------------------------|-------------------------9--|
|----------------------------|--------------------------|----------------------------|

|--------------------------|-------------2--4--6--------|--------------------------|
|--7--------7--7-----------|--7----2--4-----------7-----|--0--------0--0--------0--|
|-----------------------7--|-------------------------9--|--------------------------|
|--------------------------|----------------------------|--------------------------|

|-------------2--4--6---------||
|--2----2--4-----------7-----*||
|-------------------------9--*||
|-----------------------------||


repeat four times

||--------------2--4--6-----------|--------------------------|-------------2--4--6--------|
||*--7----2--4-----------7--------|--0--------0--0--------0--|--2----2--4-----------7-----|
||*-------------------------9--7--|--------------------------|-------------------------9--|
||--------------------------------|--------------------------|----------------------------|

|---------------------------||
|--7--------7--7--------7--*||
|--------------------------*||
|---------------------------||

repeat once and fade
Suggest correction
Give kudos to tab author, rate the tab!
1 2 3 4 5
comments
print report bad tab
2 comments total.
0 reply
emma.goltmann 10 Jun 22, 2014 04:11 AM

Lack of accuracy.

0 reply
lemorlenny 10 Nov 12, 2014 06:31 AM

I heard so

cut a bit of high freq to mitigate the G cord sound.

Intro


G||---------------6-----------|
D||--------7---9----7---------|
A||-7---9--------------9---7--| x 4
E||---------------------------|

|---------------------------|---------------6-----------|---------------------------|---------------6-----------|
|--7---7-7----------7-------|--------7---9----7---------|---------------------------|--------7---9----7---------|
|-------------7-9-----------|-7---9--------------9---5--|--5-5----5--6--7-----------|-7---9--------------9---7--|
|---------------------------|---------------------------|---------------------------|---------------------------|


and so.

there are a bit of scale to connect the part that I don't decoded yet.

Good exercise for the left hand ;).

guest
You may want to rate the tab now too:
select rating
Wanna post a correction for this tab? Suggest correction