Oops, an error
Loading. Please wait.

Courtesy Call tab

version 1
version 1

Whole song

6,657 views 1 this week
4 commentsread comments
1 2 3 4 5
x 7
add to favorites
×
Save as Personal and add changes to this tab that will be seen only by you. Learn more ›
×
You can save this tab as Personal to edit and correct it or add notes. All changes will be seen only by you. Learn more »
launch autoscroll
font size
0
reset
how to read this tab
guitar tuner
edit
Autoscroll
slow
fast
+/-
esc
set tempo
stop
Intro /verse 
0:21
e|-9---9---9---9---8---8---8---8----8---8---8---8---6---6---6---|
b|---6---6---6---6---6---6---6---6----6---6---6---6---6---6---6-|
g|--------------------------------------------------------------|     x6
d|--------------------------------------------------------------|
a|--------------------------------------------------------------|
d|--------------------------------------------------------------|

pre- chorus
E|-----------------------------------------------------------------------|
b|-----------------------------------------------------------------------|
g|-----------------------------------------------------------------------|
d|--8-7-6----------------------------------------------------------------|
a|--8-7-6----------------------------------------------------------------|
d|--8-7-6----------------------------------------------------------------|


chorus
E|-----------------------------------------------------------------------|
b|-----------------------------------------------------------------------|
g|-----------------------------------------------------------------------|
d|-8-8-8-8-8-8-8-8--7-7-7-7-7-7-7-7--6-6-6-6-6-6-6-6--5-5-5-5--4-4--3-3--| x2
a|-8-8-8-8-8-8-8-8--7-7-7-7-7-7-7-7--6-6-6-6-6-6-6-6--5-5-5-5--4-4--3-3--|
d|-8-8-8-8-8-8-8-8--7-7-7-7-7-7-7-7--6-6-6-6-6-6-6-6--5-5-5-5--4-4--3-3--|

            
            
Suggest correction
Creating personal tab
Creating personal tab
You can edit any tab online and save it as your Personal.

You can edit, replace or remove any tab part or add personal notes – all changes will be seen only by you.

Personal tabs can be accessed anytime from any device, even offline.
Learn more »
comments
print report bad tab
4 comments total. Showing first comments.
+1 reply
Niki (guitar) 70 Aug 04, 2008 12:33 PM

Haha dead on :)

0 reply
Ratt n' Roll 205 Dec 17, 2008 04:43 AM

NICE!! 5 stars

0 reply
allaninthevalle 10 May 19, 2011 11:37 AM

Good start, but I got some corrections
Verse:
e|------------------8---8---8---8----8---8---8---8---6---6---6---6----|
b|13---13---13---13--------------------------------------------------|
g|--10---10---10------8---8---8---8----8---8---8---8---6---6---6---6/-| x6
d|-------------------------------------------------------------------|
a|-------------------------------------------------------------------|
d|-------------------------------------------------------------------|
At some points on the verses he plays on to 11th fret on the 3rd strings where I have noted 10th fret. Listen to the song.

Chorus:
E|-----------------------------------------------------------------------|
b|-----------------------------------------------------------------------|
g|-----------------------------------------------------------------------|
d|-8-8-8-8-8-8-8-8--7-7-7-7-7-7-7-7--6-6-6-6-6-6-6-6--5-5-5-5--4-4--3-3--| x2
a|-8-8-8-8-8-8-8-8--8-8-8-8-8-8-8-8--6-6-6-6-6-6-6-6--6-6-6-6--4-4--3-3--|
d|-8-8-8-8-8-8-8-8--7-7-7-7-7-7-7-7--6-6-6-6-6-6-6-6--5-5-5-5--4-4--3-3--|

Pre-Chorus:
E|--------|
b|--------|
g|--------|
d|--------|
a|11-10-9-|
d|11-10-9-|

guest
Wanna post a correction for this tab? Suggest correction