Oops, an error
Loading. Please wait.

Help Is On The Way bass

7 views 1 this week
no commentswrite comment
1 2 3 4 5
3 more votes to show rating
add to favorites
×
Save as Personal and add changes to this tab that will be seen only by you. Learn more ›
×
You can save this tab as Personal to edit and correct it or add notes. All changes will be seen only by you. Learn more »
launch autoscroll
font size
0
reset
guitar tuner
edit
Autoscroll
slow
fast
+/-
esc
set tempo
stop
About this tab version
First bass tab for this song. Was this info helpful? Yes No
[Intro]
(Bass comes in at 0:14)
G|---------------------------------------------------------------------------------------------|
D|---------------------------------------------------------------------------------------------|
A|---------------------------------------------------------------------------------------------|
D|-------------------------------------------------------------x-x-----------------------------|

G|---------------------------------------------------------------------------------------------|
D|-----------3-2-------------------------------------------------------------------------------|
A|---------3---------------3-0-----------------------------------------------------------------| (x2)
D|-3---3---------5---5-5-------5-6-----7---7-----7---7-7---7-6-5-2-----------------------------|

[Verse]
G|---------------------------------------------------------------------------------------------|
D|-----------3-2-------------------------------------------------------------------------------|
A|---------3---------------3-0-----------------------------------------------------------------|
D|-3---3---------5---5-5-------5-6-----7---7-----7---7-7---7-6-5-3-----------------------------|

G|---------------------------------------------------------------------------------------------|
D|---------------------------------------------------------------------------------------------|
A|-----------3-5-12---10-10---10-10------------------------------------------------------------|
D|---3-3---7------------------------10\6-----7---7-----7---7-7---7-6-5-2-----------------------|

G|---------------------------------------------------------------------------------------------|
D|-----------3-2-------------------------------------------------------------------------------|
A|---------3---------------3-0-----------------------------------------------------------------|
D|-3---3---------5---5-5-------5-6-----7---7-----7---7-7---7-6-5-3-----------------------------|

G|---------------------------------------------------------------------------------------------|
D|---------------------------------------------------------------------------------------------|
A|---------------------------------------------------------------------------------------------|
D|---3-3---3-3-3-5---5-5-5-5-------------------------------------------------------------------|

[Chorus]
G|---------------------------------------------------------------------------------------------|
D|---------------------------------------------------------------------------------------------|
A|-------------------------------3-3-3-3-3-3-3-3-----------------------------------------------|
D|-7-7-7-7-7-7-7-2-3-3-3-3-3-3-3-----------------5-5-5-5-5-5-5-5-5-----------------------------|

G|---------------------------------------------------------------------------------------------|
D|---------------------------------------------------------------------------------------------|
A|-------------------------------3-3-3-3-3-3-3-3-5-5-5-5-5-5-5-5-5-----------------------------|
D|-7-7-7-7-7-7-7-2-3-3-3-3-3-3-3---------------------------------------------------------------|

G|---------------------------------------------------------------------------------------------|
D|---------------------------------------------------------------------------------------------|
A|----------------/5-5-5-5-5-5-5-5-0-0-0-0-0-0-0-0-0-0-0-0-0-0-0-0-----------------------------|
D|-3-3-3-3-3-3-3-3-----------------------------------------------------------------------------|

G|---------------------------------------------------------------------------------------------|
D|---------------------------------------------------------------------------------------------|
A|----------------/5-5-5-5-5-5-5-5-10-12-12-12-10-12-12-12-10-12-12-12-10-12-12-12-------------|
D|-3-3-3-3-3-3-3-3-----------------------------------------------------------------------------|

[After-Chorus]
G|---------------------------------------------------------------------------------------------|
D|-----------3-2-------------------------------------------------------------------------------|
A|---------3---------------3-0-----------------------------------------------------------------|
D|-3---3---------5---5-5-------5-6-----7---7-----7---7-7---7-6-5-2-----------------------------|

[Verse]
G|---------------------------------------------------------------------------------------------|
D|-----------3-2-------------------------------------------------------------------------------|
A|---------3---------------3-0-----------------------------------------------------------------|
D|-3---3---------5---5-5-------5-6-----7---7-----7---7-7---7-6-5-3-----------------------------|

G|---------------------------------------------------------------------------------------------|
D|---------------------------------------------------------------------------------------------|
A|-----------3-5-12---10-10---10-10------------------------------------------------------------|
D|---3-3---7------------------------10\6-----7---7-----7---7-7---7-6-5-2-----------------------|

G|---------------------------------------------------------------------------------------------|
D|-----------3-2-------------------------------------------------------------------------------|
A|---------3---------------3-0-----------------------------------------------------------------|
D|-3---3---------5---5-5-------5-6-----7---7-----7---7-7---7-6-5-3-----------------------------|

G|---------------------------------------------------------------------------------------------|
D|---------------------------------------------------------------------------------------------|
A|---------------------------------------------------------------------------------------------|
D|---3-3---3-3-3-5---5-5-5-x-x-x-x-------------------------------------------------------------|

[Chorus]
G|---------------------------------------------------------------------------------------------|
D|---------------------------------------------------------------------------------------------|
A|-------------------------------3-3-3-3-3-3-3-3-----------------------------------------------|
D|-7-7-7-7-7-7-7-2-3-3-3-3-3-3-3-----------------5-5-5-5-5-5-5-5-5-----------------------------|

G|---------------------------------------------------------------------------------------------|
D|---------------------------------------------------------------------------------------------|
A|-12-12-12-12-12-12-12-8-8-8-8-8-8-8-8-3-3-3-3-3-3-3-3-10-10-10-10-10-10-10-10-10-------------|
D|---------------------------------------------------------------------------------------------|

G|---------------------------------------------------------------------------------------------|
D|---------------------------------------10-14----10-14-9-10-------9-------10------------------|
A|----------------/5-5-5-5-5-5-5-5-0-0-0-------12------------12-12---12-12---------------------|
D|-3-3-3-3-3-3-3-3-----------------------------------------------------------------------------|

G|---------------------------------------------------------------------------------------------|
D|---------------------------------------------------------------------------------------------|
A|----------------/5-5-5-5-5-5-5-5-10-12-12-12-10-12-12-12-10-12-12-12-10-12-12-12-------------|
D|-3-3-3-3-3-3-3-3-----------------------------------------------------------------------------|

[Bridge]
G|---------------------------------------------------------------------------------------------|
D|---------------------------------------------------------------------------------------------|
A|-3-----------3---2-----------2---0-----------0-----------------------------------------------|
D|-------------------------------------------------5-----------x\------------------------------|

G|---------------------------------------------------------------------------------------------|
D|---------------------------------------------------------------------------------------------|
A|-------------------------2-------3-------5h7-10h12-10-----------10-----------10--------------|
D|-3-----------3---6---------------------------------------------------------------------------|

G|---------------------------------------------------------------------------------------------|
D|------------------------------------------------------------9--------------------------------|
A|-0-----------0---10-----------10---8---------------11----------------------------------------|
D|---------------------------------------------------------------------------------------------|

G|---------------------------------------------------------------------------------------------|
D|---------------------------------------------------------------------------------------------|
A|-3-----------3---2-----------2---0-----------------------------------------------------------|
D|-------------------------------------------------5-----------2-------------------------------|

G|---------------------------------------------------------------------------------------------|
D|---------------------------------------------------------------------------------------------|
A|---------------------------------------------------------------------------------------------|
D|-3-----------2---6-----------2---------------------------------------------------------------|

G|---------------------------------------------------------------------------------------------|
D|-----------------------------------------10-10-10-10-10-10-10-10-10/12-12-12-12-12-10--------|
A|-12-12-12-12-12-12-12-12-8-8-8-8-8-10-12---------------------------------------------12-10---|
D|---------------------------------------------------------------------------------------------|

G|---------------------------------------------------------------------------------------------|
D|---------------------------------------------------------------------------------------------|
A|-12-12-12-12-12-10-7-10-8-8-8-8-8-7-8-7-3-3-3-3-3-3-3-0--------------------------------------|
D|--------------------------------------------------------5-5-5-5-5-5-5-5----------------------|

[Chorus]
G|---------------------------------------------------------------------------------------------|
D|---------------------------------------------------------------------------------------------|
A|-------------------------------3-3-3-3-3-3-3-3-----------------------------------------------|
D|-7-7-7-7-7-7-7-2-3-3-3-3-3-3-3-----------------5-5-5-5-5-5-5-5-5-----------------------------|

G|---------------------------------------------------------------------------------------------|
D|---------------------------------------------------------------------------------------------|
A|-------------------------------3-3-3-3-3-3-3-3-5-5-5-5-5-5-5-5-5-----------------------------|
D|-7-7-7-7-7-7-7-2-3-3-3-3-3-3-3---------------------------------------------------------------|

G|---------------------------------------------------------------------------------------------|
D|---------------------------------------------------------------------------------------------|
A|----------------/5-5-5-5-5-5-5-5-0-0-0-0-0-0-0-0-0-0-0-0-0-0-0-0-----------------------------|
D|-3-3-3-3-3-3-3-3-----------------------------------------------------------------------------|

G|---------------------------------------------------------------------------------------------|
D|---------------------------------------------------------------------------------------------|
A|----------------/5-5-5-5-5-5-5-5-10-12-12-12-10-12-12-12-10-12-12-12-10-12-12-12-------------|
D|-3-3-3-3-3-3-3-3-----------------------------------------------------------------------------|

G|---------------------------------------------------------------------------------------------|
D|---------------------------------------------------------------------------------------------|
A|----------------/5-5-5-5-5-5-5-5-0-0-0-0-0-0-0-0-0-0-0-0-0-0-0-------------------------------|
D|-3-3-3-3-3-3-3-3-----------------------------------------------2-----------------------------|

G|---------------------------------------------------------------------------------------------|
D|---------------------------------------9--------------9----9-10-------9----------------------|
A|----------------/5-5-5-5-5-5-5-5-12-12---12-10-12-0-0---12------12-12---12-------------------|
D|-3-3-3-3-3-3-3-3-----------------------------------------------------------------------------|

G|---------------------------------------------------------------------------------------------|
D|---------------------------------------9-9-12-12-10-10-------9-9-10-10-----------------------|
A|----------------/5-5-5-5-5-5-5-5-12-12-----------------12-12-----------12-12-----------------|
D|-3-3-3-3-3-3-3-3-----------------------------------------------------------------------------|

G|---------------------------------------------------------------------------------------------|
D|---------------------------------------------------------------------------------------------|
A|----------------/5-5-5-5-5-5-5-5-FADE OUT----------------------------------------------------|
D|-3-3-3-3-3-3-3-3-----------------------------------------------------------------------------|


************************************

| x  Dead note
| \  Slide down
| /  Slide up
| h  Hammer-on

************************************
Suggest correction
Creating personal tab
Creating personal tab
You can edit any tab online and save it as your Personal.

You can edit, replace or remove any tab part or add personal notes – all changes will be seen only by you.

Personal tabs can be accessed anytime from any device, even offline.
Learn more »
Give kudos to tab author, rate the tab!
1 2 3 4 5
comments
print report bad tab
guest
You may want to rate the tab now too:
select rating
Wanna post a correction for this tab? Suggest correction