Oops, an error
Loading. Please wait.
We have an official Life Is Beautiful tab made by UG professional guitarists. Check out the tab »
×
36,105 views 3 this week
13 commentsread comments
1 2 3 4 5
x 6
add to favorites
×
Save as Personal and add changes to this tab that will be seen only by you. Learn more ›
×
You can save this tab as Personal to edit and correct it or add notes. All changes will be seen only by you. Learn more »
launch autoscroll
font size
0
reset
how to read this tab
guitar tuner
edit
Autoscroll
slow
fast
+/-
esc
set tempo
stop
Author
Difficulty
this version of the tabs is with D tuning
A.
d----------------------------------------------------------------|
a----------------------------------------------------------------|
f--11/12\11---9---4---2--4----7/9\7------------------------------|
c---x-x-x-----x---x---x--x----x-x-x--10--9--5--7-5--3--5--5-4----|
g---9/10\9----7---2---0--2----5/7\5--x---x--x--x-x--x--x--x-x----|
d------------------------------------8---7--3--5-7--5--3--3-2----|

B.
d---------------------------------------------------x-x-x-x-x----|
a---------------------------------------------------x-x-x-x-x----|
f------------------------------------5---------2-2--x-x-x-x-x----|
c-------------2-------5--------------5---------2-2--x-x-x-x-x----|
g-------------2-------5--------------3---------0-0--x-x-x-x-x----|
d-------------0-------3-----------------------------x-x-x-x-x----|

C.
d----------------------------------------------------------------|
a----------------------------------------------------------------|
f------7-9---7-9----9---7-9---7-9---12---9--7-9--9--7-9----------|
c------7-9---7-9----9---7-9---7-9---12---9--7-9--9--7-9--8-7-5-2-|
g------5-7---5-7----7---5-7---5-7---10---7--5-7--7--5-7--8-7-5-2-|
d---0----------------------------------------------------6-5-3-0-|


d-------------------------------------------------------------------|
a-------------------------------------------------------------------|
f------7-9---7-9----9---7-9---7-9---12---9--7-9--9------------------|
c------7-9---7-9----9---7-9---7-9---12---9--7-9--9--8-7-5-2-8-7-5-2-|
g------5-7---5-7----7---5-7---5-7---10---7--5-7--7--8-7-5-2-8-7-5-2-|
d---0-----------------------------------------------6-5-3-0-6-5-3-0-|

D.
d-----------------------------------|
a-----------------------------8-----|
f---9---9-7-9---9-7-9---9-7-9---9-7-|
c-----------------------------------|
g-----------------------------------|
d-----------------------------------|

E.

d-----------------------------------|
a-------------8-------8-------8-----|
f---9---9-7-9---9-7-9---9-7-9---9-7-|
c-----------------------------------|
g-----------------------------------|
d-----------------------------------|

F.
d--------x-x-x-x-x-x-------x-x-x-x-x-x-|
a--------x-x-x-x-x-x-------x-x-x-x-x-x-|
f---2-2--x-x-x-x-x-x--2-2--x-x-x-x-x-x-|
c---2-2--x-x-x-x-x-x--2-2--x-x-x-x-x-x-|
g---0-0--x-x-x-x-x-x--0-0--x-x-x-x-x-x-|
d--------x-x-x-x-x-x-------x-x-x-x-x-x-|

G.
d------------------------|----------------------------------------|
a------------------------|----------------------------------------|
f------------------------|----------------------------------------|
c--------------------7---|----------------------------9-7---------|
g----7---7-9-10-9-10-----|--6---6-7-9-7-9-10--6---6-7-----10-6----|
d------7-----------------|----7-----------------7-----------------|
                      x2
H.
d-------------------------|--------------------------------------------|
a-------------------------|--------------------------------------------|
f----------------------14-|---------------------------------16-14------|
c-14----14-16-17-16-17----|-13--13-14-16-14-16-17--13--13-14-----17-13-|
g----14-------------------|---14---------------------14----------------|
d-------------------------|--------------------------------------------|
                       x2

I.
d-----------------------|--------------------------------------------|
a-----------------------|---------------------------------13-12------|
f-12--12-14-16-14-16-17-|-11--11-12-14-12-14-16--11--11-12-----14-11-|
c---14------------------|---13---------------------13----------------|
g-----------------------|--------------------------------------------|
d-----------------------|--------------------------------------------|
                      x2

J.
d-12-----14-----15-----17-----11-----12-----14-----11-----12---------|
a-15b17--17b19--18b20--20b22--14b16--15b17--17b19--14b16--15b17r15~~-|
f--------------------------------------------------------------------|
c--------------------------------------------------------------------|
g--------------------------------------------------------------------|
d--------------------------------------------------------------------|

Order of the song
Intro (acoustic)
Chorus riff: lead guitar play A. while B. plays in the background
Main Riff: both guitars play C.
1st Verse: Lead guitar play D. 3 times and then E., D. 3 times again and F.
           Rhythm guitar doesn't play till half way through the verse
           (plays B. on the second half)
Chorus: both guitars play B. once, then lead guitar play A. and rhythm play
        B. one more time.
Main Riff: both guitars play C.
2nd Verse: exactly the same as 1st Verse
Chorus: both guitars play B. once, then lead guitar play A. and rhythm play
        B. one more time.
Bridge: 1st guitar G.    G.    G.    G.
        2nd guitar       H.    H.    H.
        3rd guitar             I.    I.
        4th guitar                   J.
Acoustic part
Chorus: both guitars play B. once, then lead guitar play A. and rhythm play
        B. one more time.
Outro (main riff): both guitars play C.

            
            
Suggest correction
Creating personal tab
Creating personal tab
You can edit any tab online and save it as your Personal.

You can edit, replace or remove any tab part or add personal notes – all changes will be seen only by you.

Personal tabs can be accessed anytime from any device, even offline.
Learn more »
comments
print report bad tab
13 comments total. Showing first comments.
0 reply
Jordan sixx 10 Sep 03, 2007 10:38 PM

nice tab but no intro?

0 reply
stondagain 102 Sep 11, 2007 06:33 AM

Sorry bro, it's in Drop D. Our band is learning this; I'll post the tab once we work it out.

-2 reply
bopper989 31 Oct 17, 2007 04:02 PM

whole step **

guest
You may want to rate the tab now too:
select rating
Wanna post a correction for this tab? Suggest correction