Oops, an error
Loading. Please wait.
We have an official Life Is Beautiful tab made by UG professional guitarists. Check out the tab »
×
20,161 views 9 this week
4 commentsread comments
1 2 3 4 5
x 8
add to favorites
×
Save as Personal and add changes to this tab that will be seen only by you. Learn more ›
×
You can save this tab as Personal to edit and correct it or add notes. All changes will be seen only by you. Learn more »
launch autoscroll
font size
0
reset
guitar tuner
edit
Autoscroll
slow
fast
+/-
esc
set tempo
stop
Author
The other tabs I found on this song were horribly off. Mine might be since this is my 
first tab. I used the video to tab this up, so it might be a little off because the video 
so funkay.

DropD: D,A,D,G

Acoustic Intro

|----------|
|----------|
|----------|
|-R--------|

Build Up

|-----------------|
|-----------------|
|-----------------|
|-5-5-5-5-5-5-5-5-|

Intro
(This is realy weird, and hard to believe but just watch the video 26 seconds into it. 
will notice this.)
[[ 15's and 17's. not 1 5's or 1 7's. ]]
        V---Play that untill build up.-V
        V                      V------<--|
|--------------|-------------------------|
|-------15-----|-------------------------|
|-15-17----17--|-------------------------|
|--------------|-5-5-5-5-5-5-5-5---------|

Main Riff

|-------------------------------------------------|-----------------|
|-------------------------3-----------------------|-----------------|
|---3-5---3-5-5---3-5-3-5---5-5-5-3-5-5-----------|-----------------|
|-0-----0-------0-----------------------0-6-5-3-0-|-6-5-3-0-6-5-3-0-|

Verse

Part 1       x3                   Part 2 x1
|---------------------------|---------------------------------|
|---------------------3-----|---------3-------3-----3-----3---|
|-5-5p3-5-5p3-5-5p3-5---5p3-|-5-5p3-5---5-3-5---5-3---5-3---5-|
|---------------------------|---------------------------------|

Play this after playing part 1 for the second time.
|-----------|
|-----------|
|-----------|
|-5-5--5-5--| x1

Chorus

|------------------------------------|
|-------15---------------------------|
|-15-17----17------------------------|
|-------------(x12)-5-5-5-5-5-5-5-5/-|
     x2

After guitar solo-ish part. Jump into it with this...

|-2-0----|----------------------------------------------------------2-0----|
|----3-2-|---------3-0-2-3---------3-0-2-3----------3-0-2-3------------3-2-|
|--------|-5-0-5-0---------5-0-5-0---------4-0-4-0----------4-0-4-0--------|
|--------|-----------------------------------------------------------------|
  x1                                          x3

Acoustic Break

|--------|-------------|
|--------|-------15----|
|--------|-15-17----17-|
|-R------|-------------|
           "Beautifuulll...."

Outro
"At my funeralll!"
|-------------------------------------------------|-----------------|
|-------------------------3-----------------------|-----------------|
|---3-5---3-5-5---3-5-3-5---5-5-5-3-5-5-----------|-----------------|
|-0-----0-------0-----------------------0-6-5-3-0-|-6-5-3-0-6-5-3-0-|

            
            
Suggest correction
Creating personal tab
Creating personal tab
You can edit any tab online and save it as your Personal.

You can edit, replace or remove any tab part or add personal notes – all changes will be seen only by you.

Personal tabs can be accessed anytime from any device, even offline.
Learn more »
comments
print report bad tab
4 comments total. Showing first comments.
+3 reply
alucardmik 10 Feb 21, 2009 05:27 PM

not bad,
but when i turn up the bass
there is bass really quiet
during the acoustic break
just throwing it out there

+2 reply
Darkmeteor 10 Mar 28, 2009 08:56 AM

I have a rock band version of this song, and I can tell you tabbed guitar parts, the 5 5p3 thing is played by a guitar while the bass is going through the main riff

the main riff is not even tabbed, I guess I'm gonna do it myself (none of the crappy tabs tabbed the main riff)

-2 reply
RazzleMCR1 50 May 06, 2009 01:12 PM

good tab

guest
You may want to rate the tab now too:
select rating
Wanna post a correction for this tab? Suggest correction