Oops, an error
Loading. Please wait.

Life Is Beautiful Tab

version 2
version 2

Whole song

Interactive

66,352 views 21 this week
14 commentsread comments
1 2 3 4 5
accurate
x 41
add to favorites
launch autoscroll
font size
0
reset
how to read this tab
guitar tuner
Tab Pro tools
  • play this tab
  • loop segment
  • change instrument
  • show fretboard
  • metronome
×
Best way to learn
"Life Is Beautiful"
Autoscroll
slow
fast
+/-
esc
set tempo
stop
Contributor
Difficulty
Tuning
intermediate
D A D G B E
Artist:Sixx:A.M.
Song:Life Is Beautiful
Album:The Heroin Diaries Soundtrack
Guitarist:DJ Ashba
Tabber:Dev Fuld

OK, first of all...this is my first guitar tab. Second of all, this is an awesome tune,
I've been workin' on getting down for a while now. I think that the tab is pretty
and there are little things like wah's and muting that you can figure out yourself.

Key:
* = Let it ring
p = Palm Mute
h = Hammer-on
b = Bend

Acoustic or Clean
e:-----------------------|-----------------------|
b:---------3*----5*----3*|-----------------------|
G:-----------------------|---------------------2*|
D:------0*---------------|------3*-5*----5*------|
A:---0*-------0*----0*---|---3*-------3*----3*---|
D:0*---------------------|3*---------------------|

e:-----------------------|
b:---------------3*------|
G:------3*-5*----------3*|
D:---3*-------3*----3*---|
A:1*---------------------|
D:-----------------------|

Distortion
e:----------|----------------------|-------------------------------|
b:----------|----------------------|-------------------------------|
G:----------|7-9-10-9-7*--2*-------|5-7-5-3*--2*-------------------|
D:5-5-5-5-55|-----------------5-7*-|--------------3-5--7--5-3-2-3-2|
A:5-5-5-5-55|5-7-8--7-5*--0*-------|3-5-3-1*--0*-------------------|
D:5-5-5-5-55|-----------------5-7*-|--------------3-5--7--5-3-2-3-2|
  p p p p

e:--------------------------------------------------|
b:--------------------------------------------------|
G:5-7--5-7--7--5-7--5-7--5--5-7--5-7--7-7-----------|
D:5-7--5-7--7--5-7--5-7--3--5-7--5-7--7-7----6-5-3-0|
A:3-5--3-5--5--3-5--3-5-----3-5--3-5--5-5----6-5-3-0|
D:-----------------------------------------0-6-5-3-0|

e:-------------------------------------------------------|
b:-------------------------------------------------------|
G:5-7--5-7--7--5-7--5-7--5--5-7-7--5-7-------------------|
D:5-7--5-7--7--5-7--5-7--3--5-7-7--5-7----6-5-3-0-6-5-3-0|
A:3-5--3-5--5--3-5--3-5-----3-5-5--3-5----6-5-3-0-6-5-3-0|
D:--------------------------------------0-6-5-3-0-6-5-3-0|

Verse
e:-------------------------------|
b:-------------------------6-----|
G:--7--7-5-7--7-5-7--7-5-7---7-5-|
D:-------------------------------|
A:-------------------------------|
D:-------------------------------|
    p  p p p  p p p  p p p   p p

e:-------------------------------|
b:-------------------------6-----|
G:--7--7-5-7--7-5-7--7-5-7---7-5-|
D:-------------------------------|
A:-------------------------------|
D:-------------------------------|
    p  p p p  p p p  p p p   p p

e:-------------------------------|
b:-------------------------6-----|
G:--7--7-5-7--7-5-7--7-5-7---7-5-|
D:-------------------------------|
A:-------------------------------|
D:-------------------------------|
    p  p p p  p p p  p p p   p p

e:--------------------------------|
b:------------------6-------6-----|
G:--7--7-5-7--7-5-7---7-5-7---7-5-|
D:--------------------------------|
A:--------------------------------|
D:--------------------------------|
    p  p p p  p p p   p p p   p p

e:---------------------------|
b:---------------------------|
G:7*---10*-------------------|
D:7*---10*---8*---5-5--5-5--5|
A:5*---8*----8*---5-5--5-5--5|
D:-----------8*---5-5--5-5--5|

Chorus
e:--------------------|-------------------------------|
b:--------------------|-------------------------------|
G:9-10-9-7*--2*-------|5-7-5-3*--2*-------------------|
D:---------------5-7*-|--------------3-5--7--5-3-2-3-2|
A:7-8--7-5*--0*-------|3-5-3-1*--0*-------------------|
D:---------------5-7*-|--------------3-5--7--5-3-2-3-2|

e:-------------|-------------------------------|
b:-------------|-------------------------------|
G:7*--2*-------|5-7-5-3*--2*-------------------|
D:--------5-7*-|--------------3-5--7--5-3-2-3-2|
A:5*--0*-------|3-5-3-1*--0*-------------------|
D:--------5-7*-|--------------3-5--7--5-3-2-3-2|

e:--------------------------------------------------|
b:--------------------------------------------------|
G:5-7--5-7--7--5-7--5-7--5--5-7--5-7--7-7-----------|
D:5-7--5-7--7--5-7--5-7--3--5-7--5-7--7-7----6-5-3-0|
A:3-5--3-5--5--3-5--3-5-----3-5--3-5--5-5----6-5-3-0|
D:-----------------------------------------0-6-5-3-0|

e:-------------------------------------------------------|
b:-------------------------------------------------------|
G:5-7--5-7--7--5-7--5-7--5--5-7-7--5-7-------------------|
D:5-7--5-7--7--5-7--5-7--3--5-7-7--5-7----6-5-3-0-6-5-3-0|
A:3-5--3-5--5--3-5--3-5-----3-5-5--3-5----6-5-3-0-6-5-3-0|
D:--------------------------------------0-6-5-3-0-6-5-3-0|

Verse

Chorus

Bridge
e:---------------|---------------|---------------|-----------------|
b:---------------|---------------|---------------|-----------------|
G:---------------|---------------|---------------|----------2-0----|
D:------2-3-2-3-5|------2-3-2-3-5|------0-2-0-2-3|------0h2-----3-2|
A:5-0-5----------|5-0-5----------|4-0-4----------|4-0-4------------|
D:---------------|---------------|---------------|-----------------|
  p p p p p p p p p p p p p p p p p p p p p p p p p p p

e:---------------|---------------|---------------|-----------------|
b:---------------|---------------|---------------|-----------------|
G:---------------|---------------|---------------|----------2-0----|
D:------2-3-2-3-5|------2-3-2-3-5|------0-2-0-2-3|------0h2-----3-2|
A:5-0-5----------|5-0-5----------|4-0-4----------|4-0-4------------|
D:---------------|---------------|---------------|-----------------|

e:-------------------------|-------------------------|
b:-------------------------|-------------------------|
G:----------------------12-|----------------------12-|
D:-12----12-14-15-14-15----|-12----12-14-15-14-15----|
A:----12-------------------|----12-------------------|
D:-------------------------|-------------------------|

e:-----------------------------|----------------------|
b:-----------------------------|----------------------|
G:-----------------------------|----------14-12-------|
D:-11----11-12-14-12-14-15--11-|----11-12-------15-14-|
A:----12-----------------------|-12-------------------|
D:-----------------------------|----------------------|

e:---------------|---------------------|
b:3---5---6---7--|2---3---5---2---3*---|
G:5b--7b--8b--9b-|4b--5b--7b--4b--5b*--|
D:---------------|---------------------|
A:---------------|---------------------|
D:---------------|---------------------|

Acoustic or Clean
e:-----------------------|-----------------------|
b:---------3*----5*----3*|-----------------------|
G:-----------------------|---------------------2*|
D:------0*---------------|------3*-5*----5*------|
A:---0*-------0*----0*---|---3*-------3*----3*---|
D:0*---------------------|3*---------------------|

e:-----------------------|--------------------------|
b:---------------3*------|--------------------------|
G:------3*-5*----------3*|--------------------------|
D:---3*-------3*----3*---|------5*-7*----8*-7*-5*-3*|
A:1*---------------------|---5*-------5*------------|
D:-----------------------|5*------------------------|

Chorus

End
e:--------------------------------------------------|
b:--------------------------------------------------|
G:5-7--5-7--7--5-7--5-7--5--5-7--5-7--7-7-----------|
D:5-7--5-7--7--5-7--5-7--3--5-7--5-7--7-7----6-5-3-0|
A:3-5--3-5--5--3-5--3-5-----3-5--3-5--5-5----6-5-3-0|
D:-----------------------------------------0-6-5-3-0|

e:-------------------------------------------------------|
b:-------------------------------------------------------|
G:5-7--5-7--7--5-7--5-7--5--5-7-7--5-7-------------------|
D:5-7--5-7--7--5-7--5-7--3--5-7-7--5-7----6-5-3-0-6-5-3-0|
A:3-5--3-5--5--3-5--3-5-----3-5-5--3-5----6-5-3-0-6-5-3-0|
D:--------------------------------------0-6-5-3-0-6-5-3-0|


That's it! Like I said, it's a pretty accurate tab. The notes are all correct and the
you may have to adjust to your liking. And I'm sure you can figure out what one guitar
while the other is doing something else. I pretty much tabbed out the lead parts, and
rhythm. It's already in order, so just rock out! Any questions or comments, e-mail me at rocklvson@yahoo.com
comments
print report bad tab
14 comments total. Showing first comments.
0 reply
a god wrote on November 13 2007, 06:30 pm

its in drop d. other than that its really good.

0 reply
a god wrote on November 13 2007, 06:30 pm

oops wait it says that my bad

0 reply
kesson12 wrote on November 16 2007, 03:26 am

Prettyyy damn good kid!
love this song. only problem is that the intro should go kinda like
:
e:-----------------------|-----------------------|
b:---------3*----5*----3*|-----------------------|
G:-----------
------------|---------------------2*|
D:-----------------------|---------5*----5*------|
A:---0*-------0*----0*---|---
3*-------3*----3*---|
D:0*---------------------|3*---------------------|

e:-----------------------|
b:-------------
--3*------|
G:---------5*----------3*|
D:---3*-------3*----3*---|
A:1*---------------------|
D:---------------------
--|

well that and the timing .. but besides that .. well.. your freaking awesome !

I want to post or [tab]
guest
You may want to rate the tab now too:
select rating
Please do not post tabs as comments. Select "correction" instead!