Oops, an error
Loading. Please wait.
We have an official Life Is Beautiful tab made by UG professional guitarists. Check out the tab »
×
2,881 views 3 this week
no commentswrite comment
1 2 3 4 5
1 last vote to show rating
add to favorites
×
Save as Personal and add changes to this tab that will be seen only by you. Learn more ›
×
You can save this tab as Personal to edit and correct it or add notes. All changes will be seen only by you. Learn more »
launch autoscroll
font size
0
reset
guitar tuner
edit
Autoscroll
slow
fast
+/-
esc
set tempo
stop
Someone requested tabs for this song after watching my youtube cover.
The tabs posted for this song were pretty bad so I feel obligated to post tabs for this song.

Check out my bass cover of this song!

http://www.youtube.com/watch?v=sr6Ptuy8OXg

Check out my channel for more covers!

http://www.youtube.com/user/chrisistheazn

Song is in dropped D

Intro 

   Bass comes in at 0:07

G|---------------------------------------------------|
D|-------10----10-12----10-------10----14-15-14------|
A|-10-10----10-------10----10-10----10----------15---|
D|---------------------------------------------------|

G|---------------------------------------------------|
D|-0-0-10-0-10-12-0-10-0-0-10-0-10-12-0-12-----------|
A|---------------------------------------------------|
D|---------------------------------------------------|

G|---------------------------------------------------|
D|-----10---10-12---10-----10---10-12---12-----------|
A|-8-8----8-------8----8-8----8-------8--------------|
D|---------------------------------------------------|

G|---------------------------------------------------|
D|-8-8-10-8-10-12-8-10-8-8-10-8-10-12-8-12-----------|
A|---------------------------------------------------|
D|---------------------------------------------------|

G|---------------------------------------------------|
D|-------10----10-12----10-------10----14-15-14------|
A|-10-10----10-------10----10-10----10----------15---|
D|---------------------------------------------------|

Pre-Verse 1

G|---------------------------------------------------|
D|---------------------------------------------------|
A|----------------------------------------8----------|
D|-0-10-12-0-10-12-0-12-0-10-12-0-10-12-0------------|

G|---------------------------------------------------|
D|---------------------------------------------------|
A|---------------------------------------------------|
D|-10-12-0-10-12-0-12-0-10-12-0-6-5-3-0--------------|

G|---------------------------------------------------|
D|---------------------------------------------------|
A|----------------------------------------8----------|
D|-0-10-12-0-10-12-0-12-0-10-12-0-10-12-0------------|

G|---------------------------------------------------|
D|---------------------------------------------------|
A|-----------------5---------------------------------|
D|-10-12-0-10-12-0---6-5-3-0-6-5-3-0-----------------|

Verse 1

G|---------------------------------------------------|
D|-0-0-10-0-10-12-0-10-0-0-10-0-10-12-0-12-----------|
A|---------------------------------------------------|
D|---------------------------------------------------|

G|---------------------------------------------------|
D|-----10---10-12---10-----10---10-12---12-----------|
A|-8-8----8-------8----8-8----8-------8--------------|
D|---------------------------------------------------|

G|---------------------------------------------------|
D|-8-8-10-8-10-12-8-10-8-8-10-8-10-12-8-12-----------|
A|---------------------------------------------------|
D|---------------------------------------------------|

G|---------------------------------------------------|
D|-------10----10-12----10-------10----14-15-14------|
A|-10-10----10-------10----10-10----10----------15---|
D|---------------------------------------------------|

G|---------------------------------------------------|
D|-0-0-10-0-10-12-0-10-0-0-10-0-10-12-0-12-----------|
A|---------------------------------------------------|
D|---------------------------------------------------|

G|---------------------------------------------------|
D|-----10---10-12---10-----10---10-12---12-----------|
A|-8-8----8-------8----8-8----8-------8--------------|
D|---------------------------------------------------|

G|---------------------------------------------------|
D|-8-8-10-8-10-12-8-10-8-8-10-8-10-12-8-12-----------|
A|---------------------------------------------------|
D|---------------------------------------------------|

G|---------------------------------------------------|
D|---------------------------------------------------|
A|-10-10-X-X-X-X-10-10-X-X-X-X-10-10-10-10-----------|
D|---------------------------------------------------|

Chorus 1

G|---------------------------------------------------|
D|-0-0-10-0-10-12-0-10-0-0-10-0-10-12-0-12-----------|
A|---------------------------------------------------|
D|---------------------------------------------------|

G|---------------------------------------------------|
D|-----10---10-12---10-----10---10-12---12-----------|
A|-8-8----8-------8----8-8----8-------8--------------|
D|---------------------------------------------------|

G|---------------------------------------------------|
D|-8-8-10-8-10-12-8-10-8-8-10-8-10-12-8-12-----------|
A|---------------------------------------------------|
D|---------------------------------------------------|

G|---------------------------------------------------|
D|-------10----10-12----10-------10----14-15-14------|
A|-10-10----10-------10----10-10----10----------15---|
D|---------------------------------------------------|

G|---------------------------------------------------|
D|-0-0-10-0-10-12-0-10-0-0-10-0-10-12-0-12-----------|
A|---------------------------------------------------|
D|---------------------------------------------------|

G|---------------------------------------------------|
D|-----10---10-12---10-----10---10-12---12-----------|
A|-8-8----8-------8----8-8----8-------8--------------|
D|---------------------------------------------------|

G|---------------------------------------------------|
D|-8-8-10-8-10-12-8-10-8-8-10-8-10-12-8-12-----------|
A|---------------------------------------------------|
D|---------------------------------------------------|

G|---------------------------------------------------|
D|-------10----10-12----10-------10----14-15-14------|
A|-10-10----10-------10----10-10----10----------15---|
D|---------------------------------------------------|

Pre-Verse 2

   Same as Pre-Verse 1

Verse 2

   Same as Verse 1

Chorus 2

   Same as Chorus 1

Bridge Part 1

   Bass comes in at 2:12

G|------------|
D|------------|
A|------------|
D|-0-7-5-3-2--|

G|---------------------------------------------------|
D|---------------------------------------------------|
A|-----5-----5---5-----5-----5---10------------------|
D|-0-7---0-7---0---0-7---0-7---0---------------------|

G|---------------------------------------------------|
D|---------------------------------------------------|
A|---5-----5-----------------------------------------|
D|-7---0-7---0-5-7-5-3-2-7-5-3-2---------------------|

G|---------------------------------------------------|
D|---------------------------------------------------|
A|-----5-----5---5-----5-----5---10------------------|
D|-0-7---0-7---0---0-7---0-7---0---------------------|

G|---------------------------------------------------|
D|---------------------------------------------------|
A|---5-----5-----------------------------------------|
D|-7---0-7---0-5-7-5-3-2-7-5-3-2---------------------|

G|---------------------------------------------------|
D|---------------------------------------------------|
A|-----5-----5---5-----5-----5---10------------------|
D|-0-7---0-7---0---0-7---0-7---0---------------------|

G|---------------------------------------------------|
D|---------------------------------------------------|
A|---5-----5-----------------------------------------|
D|-7---0-7---0-5-7-5-3-2-7-5-3-2---------------------|

Bridge Part 2

G|---------------------------------------------------|
D|-0-0-10-0-10-12-0-10-0-0-10-0-10-12-0-12-----------|
A|---------------------------------------------------|
D|---------------------------------------------------|

G|---------------------------------------------------|
D|-----10---10-12---10-----10---10-12---12-----------|
A|-8-8----8-------8----8-8----8-------8--------------|
D|---------------------------------------------------|

G|---------------------------------------------------|
D|-8-8-10-8-10-12-8-10-8-8-10-8-10-12-8-12-----------|
A|---------------------------------------------------|
D|---------------------------------------------------|

G|---------------------------------------------------|
D|-------10----10-12----10-------10----14-15-14------|
A|-10-10----10-------10----10-10----10----------15---|
D|---------------------------------------------------|

G|---------------------------------------------------|
D|-0-0-10-0-10-12-0-10-0-0-10-0-10-12-0-12-----------|
A|---------------------------------------------------|
D|---------------------------------------------------|

G|---------------------------------------------------|
D|-----10---10-12---10-----10---10-12---12-----------|
A|-8-8----8-------8----8-8----8-------8--------------|
D|---------------------------------------------------|

G|---------------------------------------------------|
D|-8-8-10-8-10-12-8-10-8-8-10-8-10-12-8-12-----------|
A|---------------------------------------------------|
D|---------------------------------------------------|

G|---------------------------------------------------|
D|-------10----10-12----10-------10----14-15-14------|
A|-10-10----10-------10----10-10----10----------15---|
D|---------------------------------------------------|

G|---------------------------------------------------|
D|-0-0-10-0-10-12-0-10-0-0-10-0-10-12-0-12-----------|
A|---------------------------------------------------|
D|---------------------------------------------------|

G|---------------------------------------------------|
D|-----10---10-12---10-----10---10-12---12-----------|
A|-8-8----8-------8----8-8----8-------8--------------|
D|---------------------------------------------------|

G|---------------------------------------------------|
D|-8-8-10-8-10-12-8-10-8-8-10-8-10-12-8-12-----------|
A|---------------------------------------------------|
D|---------------------------------------------------|

G|---------------------------------------------------|
D|-------10----10-12----10---------------------------|
A|-10-10----10-------10----10-10-10-10---------------|
D|---------------------------------------------------|

Chorus 3

G|---------------------------------------------------|
D|-0-0-10-0-10-12-0-10-0-0-10-0-10-12-0-12-----------|
A|---------------------------------------------------|
D|---------------------------------------------------|

G|---------------------------------------------------|
D|-----10---10-12---10-----10---10-12---12-----------|
A|-8-8----8-------8----8-8----8-------8--------------|
D|---------------------------------------------------|

G|---------------------------------------------------|
D|-8-8-10-8-10-12-8-10-8-8-10-8-10-12-8-12-----------|
A|---------------------------------------------------|
D|---------------------------------------------------|

G|---------------------------------------------------|
D|-------10----10-12----10-------10----14-15-14------|
A|-10-10----10-------10----10-10----10----------15---|
D|---------------------------------------------------|

G|---------------------------------------------------|
D|-0-0-10-0-10-12-0-10-0-0-10-0-10-12-0-12-----------|
A|---------------------------------------------------|
D|---------------------------------------------------|

G|---------------------------------------------------|
D|-----10---10-12---10-----10---10-12---12-----------|
A|-8-8----8-------8----8-8----8-------8--------------|
D|---------------------------------------------------|

G|---------------------------------------------------|
D|-8-8-10-8-10-12-8-10-8-8-10-8-10-12-8-12-----------|
A|---------------------------------------------------|
D|---------------------------------------------------|

G|---------------------------------------------------|
D|-------10----10-12----10-------10----14-15-14------|
A|-10-10----10-------10----10-10----10----------15---|
D|---------------------------------------------------|

Outro

   Same as Pre-Verse



| /  slide up
| \  slide down
| h  hammer-on
| p  pull-off
| ~  vibrato
| +  harmonic
| x  Mute note
Suggest correction
Creating personal tab
Creating personal tab
You can edit any tab online and save it as your Personal.

You can edit, replace or remove any tab part or add personal notes – all changes will be seen only by you.

Personal tabs can be accessed anytime from any device, even offline.
Learn more »
Give kudos to tab author, rate the tab!
1 2 3 4 5
comments
print report bad tab
guest
You may want to rate the tab now too:
select rating
Wanna post a correction for this tab? Suggest correction