Oops, an error
Loading. Please wait.
We have an official Life Is Beautiful tab made by UG professional guitarists. Check out the tab »
×
4,876 views 3 this week
no commentswrite comment
1 2 3 4 5
1 last vote to show rating
add to favorites
×
Save as Personal and add changes to this tab that will be seen only by you. Learn more ›
×
You can save this tab as Personal to edit and correct it or add notes. All changes will be seen only by you. Learn more »
launch autoscroll
font size
0
reset
how to read this tab
guitar tuner
edit
Autoscroll
slow
fast
+/-
esc
set tempo
stop
----------------------------------------------------------------------------
                             Life is Beautiful - Sixx: A.M.
----------------------------------------------------------------------------
Tabbed by: **Z-P-E-C**
Email: zpec_888@hotmail.com

Tuning: Drop D (D,A,D,G,B,E)

Gtr. 1c = Guitar 1 Clean
Gtr. 1d = Guitar 1 Distorted
Gtr. 2 = Rhythm Distorted
Gtr. 3 = Lead Distorted
 

INTRO
  Gtr. 1c
|---------------------------|-----------------------|
|---------3-------5------3--|-----------------------|
|---------------------------|---------0---0------2--|
|---0-----------0-----------|-----------------------|
|---------------------------|---3-------3-----------|
|-0-------------------------|-3---------------------|
|
| Gtr. 2
|---------------------------|-----------------------|
|---------------------------|-----------------------|
|---------------------------|-----------------------|
|---------------------------|-----------------------|
|---------------------------|-----------------------|
|---------------------------|-----------------------|
|
| Gtr. 3
|---------------------------|-----------------------|
|---------------------------|-----------------------|
|---------------------------|-----------------------|
|---------------------------|-----------------------|
|---------------------------|-----------------------|
|---------------------------|-----------------------|

  Gtr. 1c
|----------------------------|-----------------------------------|
|---------1-----3------------|-----------------------------------|
|---3---------------------3--|-----------------------------------|
|----------------------------|---5-----7---8-------7-------------|
|-1--------------------------|-----------5-----------------------|
|----------------------------|-5-----------------5---------------|
|
| Gtr. 2
|                              PM--------|
|----------------------------|-----------------------------------|
|----------------------------|-----------------------------------|
|----------------------------|-----------------------------------|
|----------------------------|-----------5----5----5--5----5-----|
|----------------------------|-5-5-----5-5----5----5--5----5-----|
|----------------------------|-5-5-----5-5----5----5--5----5-----|
|
| Gtr. 3                                                   
|----------------------------|-----------------------------------|
|----------------------------|-----------------------------------|
|----------------------------|------------------------9s10s==9---|
|----------------------------|-----------------------------------|
|----------------------------|------------------------7s=8s==7---|
|----------------------------|-----------------------------------|


  Gtrs. 1d and 2
                                                          PM----|
|------------------|-----------------------|------------|------------------|
|------------------|-----------------------|------------|------------------|
|-7------------x-x-|-5--------------x----x-|-3----------|------------------|
|-7------------x-x-|-5--------------x----x-|-3----------|--------5--5-5--5-|
|-5------------x-x-|-3--------------x----x-|-1----------|-5-5-5--5--5-5--5-|
|------------------|-----------------------|------------|-5-5-5--5--5-5--5-|
|
| Gtr. 3                       
|------------------|---------------------|-----------|--------------|
|------------------|---------------------|-----------|--------------|
|-7-----2----------|-----2---------------|-----------|--------------|
|------------------|-5--------10s12s10---|-8----7s3--|-5---7s5s3----|
|-5-----0----------|-----0---------------|-----------|--------------|
|------------------|-5--------10s12s10---|-8----7s3--|-5---7s5s3----|


MAIN RIFF
  Gtrs. 1d, 2, 3
|-------------------------------------|-----------------------------|
|-------------------------------------|-----------------------------|
|-------------------------------------|-----------------------------|
|-----------------------------------10|~~---------------------------|
|---10-12--10-12--12-x-10-12--10-12--8|~~-10-12--10-12--12-x-10-12--|
|-0-10-12--10-12--12-x-10-12--10-12---|---10-12--10-12--12-x-10-12--|

|-----------|
|-----------|
|-----------|
|-----------|
|--6-5-3-0--|
|--6-5-3-0--|


|-------------------------------------|-----------------------------|
|-------------------------------------|-----------------------------|
|-------------------------------------|-----------------------------|
|-----------------------------------10|~~---------------------------|
|---10-12--10-12--12-x-10-12--10-12--8|~~-10-12--10-12--12-x-10-12--|
|-0-10-12--10-12--12-x-10-12--10-12---|---10-12--10-12--12-x-10-12--|

|-------------------|
|-------------------|
|-------------------|
|--6-5-3-0-6-5-3-0--|
|--6-5-3-0-6-5-3-0--|


VERSE
  Gtr. 3
  PM---------------------------------------------------|
|---------------------------|---------------------------|
|---------------------6-----|---------------------6-----|
|-7-7-5-7-7-5-7-7-5-7---7-5-|-7-7-5-7-7-5-7-7-5-7---7-5-|
|---------------------------|---------------------------|
|---------------------------|---------------------------|
|---------------------------|---------------------------|


  PM---------------------------------------------------------|
|---------------------------|---------------------------------|
|---------------------6-----|---------6-------6-------6-------|
|-7-7-5-7-7-5-7-7-5-7---7-5-|-7-7-5-7---7-5-7---7-5-7---7-5---|
|---------------------------|---------------------------------|
|---------------------------|---------------------------------|
|---------------------------|---------------------------------|

  Gtr. 3
  PM----------------------------------------------------|
|---------------------------|----------------------------|
|---------------------6-----|----------------------6-----|
|-7-7-5-7-7-5-7-7-5-7---7-5-|--7-7-5-7-7-5-7-7-5-7---7-5-|
|---------------------------|----------------------------|
|---------------------------|----------------------------|
|---------------------------|----------------------------|
|
| Gtrs. 1d, 2
|---------------------------|----------------------------|
|---------------------------|----------------------------|
|-7-------------------------|-10-------------------------|
|-7-------------------------|-10-------------------------|
|-5-------------------------|--8-------------------------|
|---------------------------|----------------------------|

  Gtr. 3
  PM-------------------------|
|---------------------------|----------------------------------|
|---------------------6-----|----------------------------------|
|-7-7-5-7-7-5-7-7-5-7---7-5-|----------------------------------|
|---------------------------|-5-5-x-x-x-x-5-5-x-x-x-x-5-5-5-5--|
|---------------------------|-5-5-x-x-x-x-5-5-x-x-x-x-5-5-5-5--|
|---------------------------|-5-5-x-x-x-x-5-5-x-x-x-x-5-5-5-5--|
|
| Gtrs. 1d, 2
|---------------------------|----------------------------------|
|---------------------------|----------------------------------|
|---------------------------|----------------------------------|
|-8-------------------------|-5-5-x-x-x-x-5-5-x-x-x-x-5-5-5-5--|
|-8-------------------------|-5-5-x-x-x-x-5-5-x-x-x-x-5-5-5-5--|
|-8-------------------------|-5-5-x-x-x-x-5-5-x-x-x-x-5-5-5-5--|


CHORUS
  Gtrs. 1d, 2
|--------------|------------------|------------|-----------------|
|--------------|------------------|------------|-----------------|
|-7------------|-5----------------|-3----------|-----------------|
|-7------------|-5----------------|-3----------|-5---------------|
|-5------------|-3----------------|-1----------|-5---------------|
|--------------|------------------|------------|-5---------------|
|
| Gtr. 3
|--------------|------------------|-----------|------------------|
|--------------|------------------|-----------|------------------|
|-7----2-------|----2-------------|-----------|----------9s10s9--|
|--------------|-5-------10s12s10-|-8----7s3--|-5--7--5----------|
|-5----0-------|----0-------------|-----------|----------7s8s7---|
|--------------|-5-------10s12s10-|-8----7s3--|-5--7--5----------|

  Gtrs. 1d, 2
                                                 PM----|
|--------------|------------------|------------|------------------|
|--------------|------------------|------------|------------------|
|-7------------|-5----------------|-3----------|------------------|
|-7------------|-5----------------|-3----------|-------5-5-5-5-5--|
|-5------------|-3----------------|-1----------|-5-5-5-5-5-5-5-5--|
|--------------|------------------|------------|-5-5-5-5-5-5-5-5--|
|
| Gtr. 3
|--------------|------------------|------------|------------------|
|--------------|------------------|------------|------------------|
|-7----2-------|----2-------------|------------|------------------|
|--------------|-5-------10s12s10-|-8----7s3---|-5---7---5--------|
|-5----0-------|----0-------------|------------|------------------|
|--------------|-5-------10s12s10-|-8----7s3---|-5---7---5--------|


SOLO
  Gtr. 1d
  PM------------------------------------------------------|
|---------------------------------|---------------------------------|
|---------------------------------|---------------------------------|
|---------------------------------|---------------------------------|
|---------------5---------------5-|-------------------------7-5-----|
|-5---5-7-8-7-8---5---5-7-8-7-8---|-4---4-5-7-5-7-8-4---4-7-----8-7-|
|---7---------------7-------------|---7---------------7-------------|

  Gtr. 1d
  PM---------------------------------------------|
|-------------------------------------------------|
|-------------------------------------------------|
|-------------------------------------------------|
|-----------------------5-----------------------5-|
|--5-----5--7--8--7--8-----5-----5--7--8--7--8----|
|-----7-----------------------7-------------------|
|
| Gtr. 2
|-------------------------------------------------|
|-------------------------------------------------|
|----------------------12----------------------12-|
|-12----12-14-15-14-15----12----12-14-15-14-15----|
|----12----------------------12-------------------|
|-------------------------------------------------|

  Gtr. 1d
 PM--------------------------------|
|-------------------------------------------------|
|-------------------------------------------------|
|-------------------------------------------------|
|--------------------------------------7--5-------|
|--4-----4--5--7--5--7--8--4-----4--7--------8--7-|
|-----7-----------------------7-------------------|
|
| Gtr. 2
|-------------------------------------------------|
|-------------------------------------------------|
|-------------------------------------14-12-------|
|-11----11-12-14-12-14-15-11----11-12-------15-14-|
|----12----------------------12-------------------|
|-------------------------------------------------|

  Gtr. 1d
  PM-----------------------------------------------------------|
|-------------------------------------|------------------------------------|
|-------------------------------------|------------------------------------|
|-------------------------------------|------------------------------------|
|-----------------5-----------------5-|---------------------------7-5------|
|-5---5-7--8-7--8---5---5-7--8-7--8---|-4---4-5-7-5-7--8-4---4-7-------8-7-|
|---7-----------------7---------------|---7----------------7---------------|
|
| Gtr. 2 
|-------------------------------------|------------------------------------|
|-----------------8-----------------8-|--------------------------10-8------|
|-7---7-9-10-9-10---7---7-9-10-9-10---|-6---6-7-9-7-9-10-6---6-7------10-9-|
|---7-----------------7---------------|---7----------------7---------------|
|-------------------------------------|------------------------------------|
|-------------------------------------|------------------------------------|
|
| Gtr. 3
|-----------------6-----------------6-|---------------------------8-6------|
|-6---6-8-10-8-10---6---6-8-10-8-10---|-5---5-6-8-6-8-10-5---5-6------10-8-|
|---6-----------------6---------------|---6----------------6---------------|
|-------------------------------------|------------------------------------|
|-------------------------------------|------------------------------------|
|-------------------------------------|------------------------------------|

  Gtr. 1d
   PM----------------------------------------------|
|---------------------------------------------------|
|---------------------------------------------------|
|---------------------------------------------------|
|------------------------5------------------------5-|
|--5------5-7--8----7--8----5------5-7--8----7--8---|
|-------7------------------------7------------------|
|
| Gtr. 2
|---------------------------------------------------|
|------------------------8------------------------8-|
|--7------7-9-10----9-10----7------7-9-10----9-10---|
|-------7------------------------7------------------|
|---------------------------------------------------|
|---------------------------------------------------|
|
| Gtr. 3
|-10----------12-----------13----------15-----------|
|-13b15-------15b17--------16b18-------18b20--------|
|---------------------------------------------------|
|---------------------------------------------------|
|---------------------------------------------------|
|---------------------------------------------------|

  Gtr. 1d
  PM----------------------------------|
|---------------------------------------------------|
|---------------------------------------------------|
|---------------------------------------------------|
|---------------------------------------7----5------|
|--4------4-5--7----5-7--8--4------4-7----------8-7-|
|-------7------------------------7------------------|
|
| Gtr. 2
|---------------------------------------------------|
|--------------------------------------10----8------|
|--6------6-7--9----7-9-10--6------6-7---------10-9-|
|-------7------------------------7------------------|
|---------------------------------------------------|
|---------------------------------------------------|
|
| Gtr. 3
|--9----------10-----------12-----------9-----------|
|-12b14-------13b15--------15b17-------12b14--------|
|---------------------------------------------------|
|---------------------------------------------------|
|---------------------------------------------------|
|---------------------------------------------------|


INTERLUDE
  Gtr. 1c
|--------------------------------------------|-----------------------------|
|----------------3-------5-----------3-------|-----------------------------|
|--------------------------------------------|----------------0------0----2|
|----------0---------0-----------------------|-----------------------------|
|--------------------------------------------|--------3----------3---------|
|--0-----------------------------------------|---3-------------------------|
|
| Gtr. 2
|------------------------------------------|-------------------------------|
|------------------------------------------|-------------------------------|
|------------------------------------------|-------------------------------|
|------------------------------------------|-------------------------------|
|--3---3-----3h5---3-----3---3h5-----------|-3---3-----3h5---3-----3---3h5-|
|------------------------------------------|-------------------------------|
|
| Gtr. 3 
|-10~~~~~~~----------------------------------|-----------------------------|
|-13b15~~~~----------------------------------|-----------------------------|
|--------------------------------------------|-----------------------------|
|--------------------------------------------|-----------------------------|
|--------------------------------------------|-----------------------------|
|--------------------------------------------|-----------------------------|

  Gtr. 1c
|-----------------------------------------|--------------------------------|
|-----------1-------3---------------------|--------------------------------|
|-----3---------------------------3-------|--------------------------------|
|-----------------------------------------|5-----7-----8----7---5---7------|
|-1---------------------------------------|---------------5----------------|
|-----------------------------------------|--5--------------------5--------|
|
| Gtr. 2
|-----------------------------------------|--------------------------------|
|-----------------------------------------|--------------------------------|
|-----------------------------------------|--------------------------------|
|-----------------------------------------|--------------------------------|
|-3---3-----3h5---3-----3---3h5-----------|-3---3-----3h5---3-----3---3h5--|
|-----------------------------------------|--------------------------------|
|
| Gtr. 3
|-----------------------------------------|--------------------------------|
|-----------------------------------------|--------------------------------|
|-----------------------------------------|--------------------------------|
|-----------------------------------------|--------------------------------|
|-----------------------------------------|--------------------------------|
|-----------------------------------------|--------------------------------|

  Gtr. 1c
|----------------------------------------|---------------------------------|
|-----------3-------5-----------3--------|---------------------------------|
|----------------------------------------|-----------0-----0-----------2---|
|-----0-----------0----------------------|---------------------------------|
|----------------------------------------|-----3---------3-----------------|
|-0--------------------------------------|-3-------------------------------|
|
| Gtr. 2
|----------------------------------------|---------------------------------|
|----------------------------------------|---------------------------------|
|----------------------------------------|---------------------------------|
|----------------------------------------|---------------------------------|
|-3---3-----3h5----3-----3---3h5---------|-3---3-----3h5---3-------3---3h5-|
|----------------------------------------|---------------------------------|

  Gtr. 1c
|-----------------------------------------|--------------------------------|
|-----------1-------3---------------------|--------------------------------|
|-----3---------------------------3-------|--------------------------------|
|-----------------------------------------|----5-----7-----8-------7---5-3-|
|-1---------------------------------------|--------------5-----------------|
|-----------------------------------------|-5--------------------5---------|
|
| Gtr. 2
|----------------------------------------|---------------------------------|
|----------------------------------------|---------------------------------|
|----------------------------------------|---------------------------------|
|----------------------------------------|---------------------------------|
|-3---3-----3h5----3-----3---3h5---------|-3---3-----3h5---3-------3---3h5-|
|-----------------------------------------|--------------------------------|

  Gtr. 1c
|---------------------------------------|----------------------------------|
|-----------3-------5-----------3-------|----------------------------------|
|---------------------------------------|-----------0-----0-----------2----|
|-----0-----------0---------------------|----------------------------------|
|---------------------------------------|-----3---------3------------------|
|-0-------------------------------------|-3--------------------------------|
|
| Gtr. 2
|---------------------------------------|----------------------------------|
|---------------------------------------|----------------------------------|
|---------------------------------------|----------------------------------|
|---------------------------------------|----------------------------------|
|-3---3-----3h5----3-----3---3h5--------|-3---3----3h5---3-------3---3h5---|
|---------------------------------------|----------------------------------|

  Gtr. 1c
|-----------------------------------------|------------------------------|
|-----------1-------3---------------------|------------------------------|
|-----3---------------------------3-------|------------------------------|
|-----------------------------------------|---5-----7---8-------7--------|
|-1---------------------------------------|-----------5------------------|
|-----------------------------------------|-5-----------------5----------|
|
| Gtr. 2
|-----------------------------------------|------------------------------|
|-----------------------------------------|------------------------------|
|-----------------------------------------|------------------------------|
|-----------------------------------------|------------------------------|
|-3---3-----3h5----3--------3----3h5------|------------------------------|
|-----------------------------------------|------------------------------|


OUTRO

  Gtrs. 1d, 2, 3
|-------------------------------------|-----------------------------|
|-------------------------------------|-----------------------------|
|-------------------------------------|-----------------------------|
|-----------------------------------10|~~---------------------------|
|---10-12--10-12--12-x-10-12--10-12--8|~~-10-12--10-12--12-x-10-12--|
|-0-10-12--10-12--12-x-10-12--10-12---|---10-12--10-12--12-x-10-12--|

|-----------|
|-----------|
|-----------|
|-----------|
|--6-5-3-0--|
|--6-5-3-0--|


|-------------------------------------|-----------------------------|
|-------------------------------------|-----------------------------|
|-------------------------------------|-----------------------------|
|-----------------------------------10|~~---------------------------|
|---10-12--10-12--12-x-10-12--10-12--8|~~-10-12--10-12--12-x-10-12--|
|-0-10-12--10-12--12-x-10-12--10-12---|---10-12--10-12--12-x-10-12--|

|-------------------|
|-------------------|
|-------------------|
|--6-5-3-0-6-5-3-0--|
|--6-5-3-0-6-5-3-0--|
 

LEGEND
| /  slide up
| \  slide down
| h  hammer-on
| p  pull-off
| ~  vibrato
| +  harmonic
| x  Mute note

            
            
Suggest correction
Creating personal tab
Creating personal tab
You can edit any tab online and save it as your Personal.

You can edit, replace or remove any tab part or add personal notes – all changes will be seen only by you.

Personal tabs can be accessed anytime from any device, even offline.
Learn more »
Give kudos to tab author, rate the tab!
1 2 3 4 5
comments
print report bad tab
guest
Wanna post a correction for this tab? Suggest correction