Oops, an error
Loading. Please wait.

Relief solo tab

745 views 3 this week
2 commentsread comments
1 2 3 4 5
x 3
add to favorites
×
Save as Personal and add changes to this tab that will be seen only by you. Learn more ›
×
You can save this tab as Personal to edit and correct it or add notes. All changes will be seen only by you. Learn more »
launch autoscroll
font size
0
reset
how to read this tab
guitar tuner
edit
Autoscroll
slow
fast
+/-
esc
set tempo
stop
Author
Difficulty
Tabbed by: T3kken3
Tuning: Standard Tuning (E A D G B e)
YouTube Video: https://youtu.be/hagD9hWpFe8?t=14m2s

Enjoy this good song from Sixx A.M. The song here should be tuned half step down (Eb 
Ab Db Gb Bb eb) but i have made it for standard tuning.

PLEASE!! Listen carrefully to the guitar solo to understand how and when to bend and pull on and off notes :) 
It was very hard to tab that part, but sounds very good to me, when you have understand how to do it :)


|-----15-|-----------/16-|-----------------------------------------------------|
|-/13----|-/13-11--------|-/16-18-16-18b20r18-16-18b20r18-18b20r18-16-18-------|
|--------|--------13-----|-----------------------------------------------15-17-|
|--------|---------------|-----------------------------------------------------|
|--------|---------------|-----------------------------------------------------|
|--------|---------------|-----------------------------------------------------|


|-/15-11-----------------------------|
|--------13--------------------------|
|-----------12----------------13-12--|
|--------------13-12-10-12-13--------|
|------------------------------------|
|------------------------------------|


|-15-11----------------------------|-------------------------------|
|-------13-------------------------|-------------------------------|
|----------12----------------15-13-|-12h13p12h13p12h13p12h13p12h13-|
|-------------13-12-10-12-13-------|-------------------------------|
|----------------------------------|-------------------------------|
|----------------------------------|-------------------------------|


|-------------------------------------|
|-11h13p11h13p11h13p11h13p11h13p11h13-|
|-------------------------------------|
|-------------------------------------|
|-------------------------------------|
|-------------------------------------|


                                         ~~
|------------------------------------------|
|-15h16p15h16p15h16p15h16p15h16-/18--------|
|-----------------------------------/15-17-|
|------------------------------------------|
|------------------------------------------|
|------------------------------------------|


|-13-13-13-13-13-13-13-10-10-10-10-10-10-10--------------------|
|-------------------------------------------11-11-11-11-11-11--|
|--------------------------------------------------------------|
|--------------------------------------------------------------|
|--------------------------------------------------------------|
|--------------------------------------------------------------|


                                                 ~~~
|--------------------------------/11-|---------/13-|
|-11-9-9-9-9-9-9-9-8-8-8-8-8-8-8-----|-/8-11-9-----|
|------------------------------------|-------------|
|------------------------------------|-------------|
|------------------------------------|-------------|
|------------------------------------|-------------|


|-/11-10-11----|-/18-16-15-16-15-11-13-11-|
|-----------11-|--------------------------|
|--------------|--------------------------|
|--------------|--------------------------|
|--------------|--------------------------|
|--------------|--------------------------|


                       ~~~
|-------13-|---------/13-|-/11-10-11----/18-|
|-/16-8----|-/8-11-9-----|-----------11-----|
|----------|-------------|------------------|
|----------|-------------|------------------|
|----------|-------------|------------------|
|----------|-------------|------------------|


|-/18-16-15-16-15-11-13-11-|-15---------------------------------------|
|--------------------------|----18-16-18b20-18b20r18-18b20r18-18b20---|
|--------------------------|------------------------------------------|
|--------------------------|------------------------------------------|
|--------------------------|------------------------------------------|
|--------------------------|------------------------------------------|


                                                                        ~~
|-15-------15-------15-------15-------15-------------------------18b20r18-18-|
|----18b20----18b20----18b20----18b20----18b20-18b20r18-16-18b20-------------|
|----------------------------------------------------------------------------|
|----------------------------------------------------------------------------|
|----------------------------------------------------------------------------|
|----------------------------------------------------------------------------|


|-16-15h16p15h16p15h16p15h16p15h16p15h16p15h16---|
|------------------------------------------------|
|------------------------------------------------|
|------------------------------------------------|
|------------------------------------------------|
|------------------------------------------------|


|-13h15p13h15p13h15p13h15p13h15p13h15p13h15-|
|-------------------------------------------|
|-------------------------------------------|
|-------------------------------------------|
|-------------------------------------------|
|-------------------------------------------|


   ~~    ~~~~~~~~       ~~~~~     ~~~~~   ~~~~~~  ~
|-11-10-11-|-----10-11-10----|-10-8------------------|
|----------|-/11----------11-|------/8-11-9-8--------|
|----------|-----------------|----------------8-7-8--|
|----------|-----------------|-----------------------|
|----------|-----------------|-----------------------|
|----------|-----------------|-----------------------|


************************************

| x   Dead note
| g   Grace note
| (n) Ghost note
| h   Hammer-on
| p   Pull-off
| r   Release
| >   Accented note
| t   Tapping
| b   Bend
| br  Bend release
| pb  Pre-bend
| pbr Pre-bend release
| /   Slide up
| \   Slide down
| ~   Vibrato
| s   Slap
| P   Pop
| PM  Palm mute
| TR  Trill
| N   Tremolo

************************************
Suggest correction
Creating personal tab
Creating personal tab
You can edit any tab online and save it as your Personal.

You can edit, replace or remove any tab part or add personal notes – all changes will be seen only by you.

Personal tabs can be accessed anytime from any device, even offline.
Learn more »
Give kudos to tab author, rate the tab!
1 2 3 4 5
comments
print report bad tab
2 comments total.
0 reply
T3kken3 75 Mar 29, 2016 12:52 PM

58 views no reply? Please help me to rate my tabs. If they are good i will publish more sixx am solo :)

0 reply
T3kken3 75 Mar 29, 2016 12:53 PM

58 views no reply? Please help me to rate my tabs. If they are good i will publish more sixx am solo :)

guest
You may want to rate the tab now too:
select rating
Wanna post a correction for this tab? Suggest correction