Oops, an error
Loading. Please wait.

This Is Gonna Hurt Bass Tab

version 1
version 1

Whole song

Interactive

2,189 views 6 this week
no commentswrite comment
1 2 3 4 5
please rate
add to favorites
launch autoscroll
font size
0
reset
guitar tuner
Tab Pro tools
  • play this tab
  • loop segment
  • change instrument
  • show fretboard
  • metronome
×
Best way to learn
"This Is Gonna Hurt"
Autoscroll
slow
fast
+/-
esc
set tempo
stop
Contributor
Difficulty
Tuning
novice
D A D G B E
Song: This Is Gonna Hurt
Band: Sixx: A.M.
Album: This Is Gonna Hurt {2011}    ************PLEASE RATE**************

Tuning:
Drop D (D,a,d,g)

Intro:
G|--------------------------------------------------------------------------|
D|--------------------------------------------------------------------------|
A|--------------------------------------------------------------------------|
D|--3b------------------3b---------------------3b---------------------------|

Post Chorus:                x2
G|----------------------------|---------------------------------------------|
D|----------------------------|---------------------------------------------|
A|---------1~--------------3~-|-----1111111-----------3333------------------|
D|-0~~-------------5~---------|-0~------------5555--------------------------|

Verse:                       x2
G|-----------------------------|--------------------------------------------|
D|-----------------------------|--------------------------------------------|
A|---------------1-----------3-|-----------------1-------------3------------|
D|--0----0-0------------5------|--0-2-3--0-2-3----------5-------------------|

Pre-Chorus:
G|-------------------------------------------|
D|-------------------------------------------|
A|-1111111111111111----3333333333333333------|
D|-------------------------------------------|

Chorus:                         x4
G|---------------------------------------------------------------------------|
D|---------------------------------------------------------------------------|
A|-------------------1~~--------0~~~-----------------------------------------|
E|-0~~------3~~--------------------------------------------------------------|

Post-Chorus:
G|---------------------------------------------|
D|---------------------------------------------|
A|-----1111111-----------3333------------------|
D|-0~------------5555--------------------------|

Pre-verse:
G|------------------|
D|------------------|
A|------------------|
E|---0-0-0----------|

Verse 2:                              x2
G|--------------------------------------|-------------------------------------|
D|--------------------------------------|-------------------------------------|
A|----------------1--------------------3|--------------|x2|---1--------3333---|
E|---0-0----------------------5---------|-0-2-3---0-2-3----------5555---------|

Pre-Chorus:
G|-------------------------------------------|
D|-------------------------------------------|
A|-1111111111111111----3333333333333333------|
D|-------------------------------------------|

Chorus:                         x4
G|---------------------------------------------------------------------------|
D|---------------------------------------------------------------------------|
A|-------------------1~~--------0~~~-----------------------------------------|
E|-0~~------3~~--------------------------------------------------------------|

Pre-Solo:
G|---------------------------------------------------------------------------|
D|---------------------------------------------------------------------------|
A|---------------------------------------------------------------------------|
E|-0~~~~~~~~~~~~-------------------------------------------------------------|

Solo:                         x2
G|---------------------------------------------------------------------------|
D|---------------------------------------------------------------------------|
A|-------------------1~~--------0~~~-----------------------------------------|
E|-0~~------3~~--------------------------------------------------------------|

Chorus:                         x4
G|---------------------------------------------------------------------------|
D|---------------------------------------------------------------------------|
A|-------------------1~~--------0~~~-----------------------------------------|
E|-0~~------3~~--------------------------------------------------------------|


Post Chorus:
G|---------------------------------------------|
D|---------------------------------------------|
A|-----1111111-----------3333------------------|
D|-0~------------5555--------------------------|

The End...

PLEASE RATE & IF ANY CORRECTIONS OR COMMENTS PLEASE DO!
comments
We did not receive enough feedback on this tab! Please rate:
print report bad tab
1 2 3 4 5
I want to post or [tab]
guest
You may want to rate the tab now too:
select rating
Please do not post tabs as comments. Select "correction" instead!