Oops, an error
Loading. Please wait.

Tomorrow bass

6,982 views 1 this week
1 commentread comment
1 2 3 4 5
x 8
add to favorites
×
Save as Personal and add changes to this tab that will be seen only by you. Learn more ›
×
You can save this tab as Personal to edit and correct it or add notes. All changes will be seen only by you. Learn more »
launch autoscroll
font size
0
reset
guitar tuner
edit
Autoscroll
slow
fast
+/-
esc
set tempo
stop
Difficulty
			  Tomorrow – Sixx AM


Tabbed By: Troy S

I have played off and on for 10 years.
I believe I am around 99% (1% just incase)
This is my first tab submitted I tried to make it a simple as I could.  

Tuning: Drop down E to D

Intro:
G|----------------------------------------------|
D|----------------------------------------------|
A|----------------------------------------------|   (x2)
D|--7-7--5-5--3-3—5-5--7-7--5-5--3-3—5-5--------|

Verse:
G|--------------------------------------------------------------------|
D|--------------------------------------------------------------------|
A|--------------------------------------------------------------------|
D|-7-7--5-5--3-3--2-2--0-0--0-0--2---7-7--5-5--3-3--2-2--0-0--0-0-2/12|

G|---------------------------------------------------|
D|---------------------------------------------------|
A|-------------------3-3-3---------------------------|  (x2)
D|--3-3-3-3-3-3-3-3---------5-5-5-5------------------|

G|--------------------------------------------------------------------|
D|--------------------------------------------------------------------|
A|-----------------3-3-3-3--------------------------------------------|
D|-3-3-3-3-3-3-3-3---------5-5-5-5--0-0-0-0-0-0-0-0--3-3-3-3--5-5-5-5-|

Chorus:
G|---------------------------------------------------------|
D|---------------------------------------------------------|
A|---------------------------------------------------------|  (x2)
D|--7-7-7-7--5-5-5-5--3-3-3-3--5-5-5-5---------------------|

G|-------------------------------------------------------|
D|-------------------------------------------------------|
A|-------------------------------------------------------| (once)
D|--7-7-7-7--5-5-5-5--3-3-3-3-3-3-3-3--5-5-5-5--2--x-----|
   (First time thru end on D: --12-- identified by the x)



Repeat Verse and chorus



G|-----------------------------------------------|
D|-----------------------------------------------|
A|-----------------------------------------------|  (x4)
D|--3-3---7---3-3---7---7-7-7-7---9-9-9-9--------|



G|-------------------------------------------------------------------|
D|-------------------------------------------------------------------|
A|-------------------------------------------------------------------|
D|--3-3-3--0-0-0--7-7-7-7--5-5-5-5--3-3-3—7-7-7-7-5-5-5-5-5-5-5-5----|

G|----------------------------------------------------------------|
D|----------------------------------------------------------------|
A|------3---------------3-----------------------------------------|
D|--3-------5------3--------5-------0---------2-3-5-7--4-5-7-9----|

G|----------------------------------------|
D|----------------------------------------|
A|----------------------------------------| (x2) 
D|--7-7-7-7--5-5-5-5--3-3-3-3--5-5-5-5----|

G|---------------------------------------------------|
D|---------------------------------------------------| One time
A|---------------------------------------------------| thru.
D|--7-7-7-7--5-5-5-5--3-3-3-3-3-3-3-3--5-5-5-5--2----|

G|----------------------------------------|
D|----------------------------------------|
A|----------------------------------------| (repeat and fade)
D|--7-7-7-7--5-5-5-5--3-3-3-3--5-5-5-5----|


| / Slide 
| h hammer-on
| p pull-off
| ~ Vibrato
| + Harmonic
| x Mute note
======================================================================
Suggest correction
Creating personal tab
Creating personal tab
You can edit any tab online and save it as your Personal.

You can edit, replace or remove any tab part or add personal notes – all changes will be seen only by you.

Personal tabs can be accessed anytime from any device, even offline.
Learn more »
comments
print report bad tab
1 comment total.
0 reply
phasesevenfold 213 Oct 21, 2008 11:51 AM

ok, not bad for your first tab. just please, next time, double check your work. ya have the intro x2 when it's fine as is. also, label your parts better. when it goes acousic there should be no bass.

also, this is a good basic version but it's Nikki Sixx for christ sake! jazz it up a little! =] (if ya wanna) otehrwise good

guest
Wanna post a correction for this tab? Suggest correction