Oops, an error
Loading. Please wait.

We Will Not Go Quietly Tab

version 1
version 1

Solo

Whole song

  • Tabbed from this playthrough: https://www.youtube.com/watch?v=WK72Sp6KMmQ.
199 views 45 this week
no commentswrite comment
1 2 3 4 5
2 more votes to show rating
add to favorites
launch autoscroll
font size
0
reset
how to read this tab
guitar tuner
Autoscroll
slow
fast
+/-
esc
set tempo
stop
Help us to improve Ultimate-Guitar.com Take our survey!
×
Author
Difficulty
Tuning
intermediate
D A D G B E
Tabbed by: T3kken3
Tuning: Drop D (D A D G B e)
YouTube Video: https://www.youtube.com/watch?v=fAX5zB6Rsj4


e|-------------------------------|-------------------18-17-15-12-13-15-|
B|-------------------------------|-20-18-17-20-18-17-------------------|
G|-------------------------------|-------------------------------------|
D|-10-12-14-15-17-14-12-11-9-7-7-|-------------------------------------|
A|-------------------------------|-------------------------------------|
D|-------------------------------|-------------------------------------|


e|-10----10----10----10----10-----|
B|----10----10----10----10----10--|
G|--------------------------------|
D|--------------------------------|
A|--------------------------------|
D|--------------------------------|


e|-10----12----12----12----12-13----13----13-|
B|----10----10----10----10-------10----10----|
G|-------------------------------------------|
D|-------------------------------------------|
A|-------------------------------------------|
D|-------------------------------------------|


                        ~~
e|-15b17-13-15-13-15-13-15-13-|-12-13p12-13p12-13p12-13p12-13p12-13p12-13p12-13-|-/10----|
B|----------------------------|-------------------------------------------------|-/10----|
G|----------------------------|-------------------------------------------------|--------|
D|----------------------------|-------------------------------------------------|--------|
A|----------------------------|-------------------------------------------------|--------|
D|----------------------------|-------------------------------------------------|--------|


************************************

| /   slide up
| p   pull-off
| ~   vibrato
| b   Bend

************************************
Suggest correction
Give kudos to tab author, rate the tab!
1 2 3 4 5
comments
print report bad tab
guest
You may want to rate the tab now too:
select rating
Wanna post a correction for this tab? Suggest correction