Oops, an error
Loading. Please wait.

We Will Not Go Quietly Tab

version 1
version 1

Whole song

  • Tabbed from this playthrough: https://www.youtube.com/watch?v=WK72Sp6KMmQ.
469 views 123 this week
no commentswrite comment
1 2 3 4 5
2 more votes to show rating
add to favorites
launch autoscroll
font size
0
reset
how to read this tab
guitar tuner
Autoscroll
slow
fast
+/-
esc
set tempo
stop
Help us to improve Ultimate-Guitar.com Take our survey!
×
Author
Difficulty
Tuning
intermediate
D A D G B E
Sixx:A.M. - We Will Not Go Quietly
Drop D Tuning


[Intro]

Notes: This is played with a whammy pedal on the recording

e|---------------------------------------------------------------------------|
B|---------------------------------------------------------------------------|
G|---------------------------------------------------------------------------|
D|-----7-----7-----7---------7-----7-----7---------8-----8-----8---------5---|
A|-5-5---5-5---5-5---5-3-5-5---5-5---5-5---5-3-5-5---5-5---5-5---5-3-5-5---5-|
D|---------------------------------------------------------------------------|

e|---------------------------------------------------------------------------|
B|---------------------------------------------------------------------------|
G|---------------------------------------------------------------------------|
D|---5-----5-----------------------------------------------------------------|
A|-5---5-5-------------------------------------------------------------------|
D|---------------------------------------------------------------------------|


[Verse]

e|----------------------------------------------------------------------------|
B|----------------------------------------------------------------------------|
G|----------------------------------------------------------------------------|
D|---------------------------------------3-3-3--3-3-3--3-3--5-5-5--5-5-5--5-5-| x2
A|-0-0-0--0-0-0--0-0--0-0-0--0-0-0--0-0--1-1-1--1-1-1--1-1--5-5-5--5-5-5--5-5-|
D|-0-0-0--0-0-0--0-0--0-0-0--0-0-0--0-0---------------------5-5-5--5-5-5--5-5-|
  PM----------------------------------------    ---    -    ----   ----   -

[Pre-Chorus]

e|----------------------------------------------------------------------------|
B|----------------------------------------------------------------------------|
G|--2---2---2---2---2---2---3---3---5---5---7---2---2---2---2---2---3---3---5-|
D|0---0---0---0---0---0---0---0---0---0---0---0---0---0---0---0---0---0---0---|
A|----------------------------------------------------------------------------|
D|----------------------------------------------------------------------------|


[Chorus]

e|-0------------------------------------------------------------------------|
B|-0------------------------------------------------------------------------|
G|-2------5------5------3---------------------------------------------------|
D|-0-[x7]-x-[x7]-5-[x7]-3-[x7]----------------------------------------------|
A|-0------3------3------1---------------------------------------------------|
D|-0------------------------------------------------------------------------|

[Solo]

Part 1:
e|---------------------------------------------------------------------------|
B|---------------------------------------------------------------------------|
G|---------------------------------------------------------------------------|
D|-8-12-14-15-17-14-12-11-9-7-7----------------------------------------------|
A|---------------------------------------------------------------------------|
D|---------------------------------------------------------------------------|

Part 2: With Whammy
e|-------------------18-17-15-12-13-15---------------------------------------|
B|-20-18-17-20-18-17---------------------------------------------------------|
G|---------------------------------------------------------------------------|
D|---------------------------------------------------------------------------|
A|---------------------------------------------------------------------------|
D|---------------------------------------------------------------------------|

Part  3:
e|-10----10----10----10----10----10----12----12----12----12s13----13----13---|
B|----10----10----10----10----10----10----10----10----10-------10----10------|
G|---------------------------------------------------------------------------|
D|---------------------------------------------------------------------------|
A|---------------------------------------------------------------------------|
D|---------------------------------------------------------------------------|

e|-15b17--13h15p13-15p13h15-13-12h13p12-12h13p12-12h13p12-12h13p12-12h13p12-12h13p12-10\--|
B|-----------------------------------------------------------------------------------10\--|
G|----------------------------------------------------------------------------------------|
D|----------------------------------------------------------------------------------------|
A|----------------------------------------------------------------------------------------|
D|----------------------------------------------------------------------------------------|


************************************
| h   Hammer-on
| p   Pull-off
| b   Bend
| \   Slide down
| PM  Palm mute
| x   Dead Note

************************************
Suggest correction
Give kudos to tab author, rate the tab!
1 2 3 4 5
comments
print report bad tab
guest
You may want to rate the tab now too:
select rating
Wanna post a correction for this tab? Suggest correction