Oops, an error
Loading. Please wait.

Run This Town tab

13 views 1 this week
no commentswrite comment
1 2 3 4 5
3 more votes to show rating
add to favorites
×
Save as Personal and add changes to this tab that will be seen only by you. Learn more ›
×
You can save this tab as Personal to edit and correct it or add notes. All changes will be seen only by you. Learn more »
launch autoscroll
font size
0
reset
how to read this tab
guitar tuner
edit
Autoscroll
slow
fast
+/-
esc
set tempo
stop
   D
e|-------------------------|-------------------------|
B|-------------------------|-------------------------|
G|11-11-11-11-11-11-11-11--|12-12-12-12-11-11-11-11--|
D|-------------------------|-------------------------|
A|9--9--9--9--9--9--9--9---|10-10-10-10-9--9--9--9---|
E|-------------------------|-------------------------|
   G                         A
e|-------------------------|-------------------------|
B|-------------------------|-------------------------|
G|-------------------------|-------------------------|
D|9--9--9--9--9--9--14-14--|11-11-11-11-11-11-11-11--|
A|-------------------------|-------------------------|
E|7--7--7--7--7--7--12-12--|9--9--9--9--9--9--9--9---| x4

D D G A

D                              G
Sitting in class it’s such a bore 
             A
Coming home, kicking the front door 
D                        G
Got home running to the bed, 
                A
Just can’t get her out of my head 

Hanging out in the parking lot 
She promised to show, but I guess not 
My friends they will never let me down, 
Remind me why I love this town 


D              A             G         G
My friends and I we run this town 
D              A             G            G
No one’s gonna stop us while we’re young 
D              A             G         G
My friends and I we rule this town 
D              A             G         G
My friends will always be by my side 

   D
e|-------------------------|-------------------------|
B|-------------------------|-------------------------|
G|11-11-11-11-11-11-11-11--|12-12-12-12-11-11-11-11--|
D|-------------------------|-------------------------|
A|9--9--9--9--9--9--9--9---|10-10-10-10-9--9--9--9---|
E|-------------------------|-------------------------|
   G                         A
e|-------------------------|-------------------------|
B|-------------------------|-------------------------|
G|-------------------------|-------------------------|
D|9--9--9--9--9--9--14-14--|11-11-11-11-11-11-11-11--|
A|-------------------------|-------------------------|
E|7--7--7--7--7--7--12-12--|9--9--9--9--9--9--9--9---| x4


Finding ways to make the days go by 
Riding the board to waste some time 
I’m sure that they would all agree, 
This is where I’m supposed to be 

Making plans with the bros tonight 
After me and my ex’s fight 
She mentioned me in her last tweet, 
And how she’s fucking my friend Pete 


My friends and I we run this town 
No one’s gonna stop us while we’re young 
My friends and I we rule this town 
My friends will always be by my side 


e|-------------------------|-------------------------|
B|15-15-15-15-15-15-15-15--|17-17-17-14-14-14-15-15--|
G|-------------------------|-------------------------|
D|-------------------------|-------------------------|
A|-------------------------|-------------------------|
E|-------------------------|-------------------------|

e|-------------------------|-------------------------|
B|12-12-12-12-12-12-12-12--|12-12-12-12-12-12-12-12--|
G|-------------------------|-------------------------|
D|-------------------------|-------------------------|
A|-------------------------|-------------------------|
E|-------------------------|-------------------------| x2

e|-------------------------|-------------------------|
B|10-10-10-8--8--8--7--7---|8--8--8--7--7--7--3--3---|
G|-------------------------|-------------------------|
D|-------------------------|-------------------------|
A|-------------------------|-------------------------|
E|-------------------------|-------------------------|

e|-------------------------|-------------------------|
B|0--0--0--0--0--0--0--0---|0--0--0--0--0--0--0--0---|
G|-------------------------|-------------------------|
D|-------------------------|-------------------------|
A|-------------------------|-------------------------|
E|-------------------------|-------------------------| x2

D A G G

D                        A                   G     G
Yeah, you know it’s not hard living in this town 
D                        A    G    G
But I do it for my friends 
D                        A  G   G
Everything I’ve ever wanted 
D                     A   G  G
I got right here, y’know 

   D
e|-------------------------|-------------------------|
B|-------------------------|-------------------------|
G|11-11-11-11-11-11-11-11--|12-12-12-12-11-11-11-11--|
D|-------------------------|-------------------------|
A|9--9--9--9--9--9--9--9---|10-10-10-10-9--9--9--9---|
E|-------------------------|-------------------------|
   G                         A
e|-------------------------|-------------------------|
B|-------------------------|-------------------------|
G|-------------------------|-------------------------|
D|9--9--9--9--9--9--14-14--|11-11-11-11-11-11-11-11--|
A|-------------------------|-------------------------|
E|7--7--7--7--7--7--12-12--|9--9--9--9--9--9--9--9---| x2

D A G G

My friends and I we run this town 
No one’s gonna stop us while we’re young 
My friends and I we rule this town 
My friends will always be by my side 

            
            
Suggest correction
Creating personal tab
Creating personal tab
You can edit any tab online and save it as your Personal.

You can edit, replace or remove any tab part or add personal notes – all changes will be seen only by you.

Personal tabs can be accessed anytime from any device, even offline.
Learn more »
Give kudos to tab author, rate the tab!
1 2 3 4 5
comments
print report bad tab
guest
You may want to rate the tab now too:
select rating
Wanna post a correction for this tab? Suggest correction