Oops, an error
Loading. Please wait.

Shes Gone Tab

7 views 7 this week
no commentswrite comment
1 2 3 4 5
3 more votes to show rating
add to favorites
launch autoscroll
font size
0
reset
how to read this tab
guitar tuner
Autoscroll
slow
fast
+/-
esc
set tempo
stop
Help us to improve Ultimate-Guitar.com Take our survey!
×
Author
[Intro]
e|------------------------------------------------------------7--|
B|--------------------------8---6-4---------------------------7--|
G|------------------------------------------------------------7--|
D|----------------------------------------7-------------------7--|
A|-5-6-5-7-5-6-5-7-5-6-5-7----------5-6-5---5-6-5-7-5-6-5-7---8--|
E|------------------------------------------------------------7--|

e|-7-7-7-7-5--8---9---7---10-----5--7-7-7-7----7-----------|
B|--------------8---8---7----6-7----7-7-7-7----7-----------|
G|----------------------------------7-7-7-7----7-----------|
D|----------------------------------7-7-7-7----7-----------|
A|----------------------------------8-8-8-8----8-----------|
E|----------------------------------7-7-7-7----7-----------|

[Verse]
I had a girl. A beautiful one. And I thought that i had won.
e|--7-8-7-8-6-9-7-8-7-8-6-9-7-8-7-8-6-9-7-8-7-8-6-9-7-8-7-8-6-9--|
B|---------------------------------------------------------------|
G|---------------------------------------------------------------|
D|---------------------------------------------------------------|
A|---------------------------------------------------------------|
E|---------------------------------------------------------------|
Well i was wrong as she left me the very next day. Im sad. Thats what ill say.
e|-7-8-7-8-6-9-7-8-7-8-6-9-7-8-7-8-6-9-7-8-7-8-6-9-7-8-7-8-6-9-7-8-7-8-6-9-7-8-7-8-6-9-|
B|-------------------------------------------------------------------------------------|
G|-------------------------------------------------------------------------------------|
D|-------------------------------------------------------------------------------------|
A|-------------------------------------------------------------------------------------|
E|-------------------------------------------------------------------------------------|

[Verse]
I saw in the cafe with a big strong man one day. I got in my car and drove away.
e|-7-8-7-8-6-9-7-8-7-8-6-9-7-8-7-8-6-9-7-8-7-8-6-9-7-8-7-8-6-9-7-8-7-8-6-9-7-8-7-8-6-9-|
B|-------------------------------------------------------------------------------------|
G|-------------------------------------------------------------------------------------|
D|-------------------------------------------------------------------------------------|
A|-------------------------------------------------------------------------------------|
E|-------------------------------------------------------------------------------------|

Tears streaming down my face. I didnt want to stay at that place any longer.
e|-7-8-7-8-6-9-7-8-7-8-6-9-7-8-7-8-6-9-7-8-7-8-6-9-7-8-7-8-6-9-7-8-7-8-6-9-7-8-7-8-6-9-|
B|-------------------------------------------------------------------------------------|
G|-------------------------------------------------------------------------------------|
D|-------------------------------------------------------------------------------------|
A|-------------------------------------------------------------------------------------|
E|-------------------------------------------------------------------------------------|

[Chorus]
          Shes gone. Shes gone. Gone.
e|-----------------------------------------|
B|-----------------------------------------|
G|-----------------------------------------|
D|-----------------------------------------|
A|-----------------------------------------|
E|-5\8-5\8---7-8-9-8-9-10-8-9-8--5\8-5\8---|

[Verse]
My life has changed in a massive way and i dont know what made ger rage away.
e|-7-8-7-8-6-9-7-8-7-8-6-9-7-8-7-8-6-9-7-8-7-8-6-9-7-8-7-8-6-9-7-8-7-8-6-9-7-8-7-8-6-9-|
B|-------------------------------------------------------------------------------------|
G|-------------------------------------------------------------------------------------|
D|-------------------------------------------------------------------------------------|
A|-------------------------------------------------------------------------------------|
E|-------------------------------------------------------------------------------------|

I do my best but cant succeed. My spirit is in massive oh massive oh massive need.
e|-7-8-7-8-6-9-7-8-7-8-6-9-7-8-7-8-6-9-7-8-7-8-6-9-7-8-7-8-6-9-7-8-7-8-6-9-7-8-7-8-6-9-|
B|-------------------------------------------------------------------------------------|
G|-------------------------------------------------------------------------------------|
D|-------------------------------------------------------------------------------------|
A|-------------------------------------------------------------------------------------|
E|-------------------------------------------------------------------------------------|

[Verse]
What ever happened to you darl? What made you snarl at me whenever i came here?
e|-7-8-7-8-6-9-7-8-7-8-6-9-7-8-7-8-6-9-7-8-7-8-6-9-7-8-7-8-6-9-7-8-7-8-6-9-7-8-7-8-6-9-|
B|-------------------------------------------------------------------------------------|
G|-------------------------------------------------------------------------------------|
D|-------------------------------------------------------------------------------------|
A|-------------------------------------------------------------------------------------|
E|-------------------------------------------------------------------------------------|

I thought that you really loved me. But i still really need you. Cant you seee?
e|-7-8-7-8-6-9-7-8-7-8-6-9-7-8-7-8-6-9-7-8-7-8-6-9-7-8-7-8-6-9-7-8-7-8-6-9-7-8-7-8-6-9-|
B|-------------------------------------------------------------------------------------|
G|-------------------------------------------------------------------------------------|
D|-------------------------------------------------------------------------------------|
A|-------------------------------------------------------------------------------------|
E|-------------------------------------------------------------------------------------|

[Solo]
e|----------------------------------------------------------------------------------------|
B|----------------------10----------------------------------------------------------------|
G|-7-8-8-7-8-8-9-9-10-9-------11-9-7-8-7--------------------------------------------------|
D|-------------------------10-------------10-9--------------------------------------------|
A|----------------------------------------------------------------------------------------|
E|---------------------------------------------8-9-8-9-8-8-7-9-10-9-10-9-10-9-10-9--8/4-3-|

[Chorus]
          Shes gone. Shes gone. Gone.
e|-----------------------------------------|
B|-----------------------------------------|
G|-----------------------------------------|
D|-----------------------------------------|
A|-----------------------------------------|
E|-5\8-5\8---7-8-9-8-9-10-8-9-8--5\8-5\8---|

[Outro]
e|----------13-14-14-13-15-15-14-13-12-15-14-13-16-17-14----14-15--14-13----12-12----------------------------|
B|-------------------------------------------------------14--------------13----------------------------------|
G|-----------------------------------------------------------------------------------------------------------|
D|-----------------------------------------------------------------------------------------------------------|
A|-----------------------------------------------------------------------------------------------------------|
E|-8-8-8---------------------------------------------------------------------------9-6-4-5--0-0-0-0-1--3-5---|

e|-15-15-15-15-13--13-14-15-14-14----15----------13----15--------------------------------------------15-14---|
B|--------------------------------14----15----13----13----13-13-14-14--14-15-15-15-13-13-15----13-14-------13|
G|-----------------------------------------14-----------------------------------------------15---------------|
D|-----------------------------------------------------------------------------------------------------------|
A|-----------------------------------------------------------------------------------------------------------|
E|-----------------------------------------------------------------------------------------------------------|

e|----------------|
B|----------------|
G|----------------|
D|----------------|
A|----------------|
E|--6-6-7-5---0-5-|

************************************

| \  Slide down
| /  Slide up

************************************
Son im trying to show you the way so you can live another day
Suggest correction
Give kudos to tab author, rate the tab!
1 2 3 4 5
comments
print report bad tab
guest
You may want to rate the tab now too:
select rating
Wanna post a correction for this tab? Suggest correction