Oops, an error
Loading. Please wait.

El Olvidado Bass

version 1
version 1

Whole song

by Ska-P
143 views 3 this week
no commentswrite comment
1 2 3 4 5
3 more votes to show rating
add to favorites
launch autoscroll
font size
0
reset
guitar tuner
×
Best way to learn
"El Olvidado"
Autoscroll
slow
fast
+/-
esc
set tempo
stop
Despues de los vientos entra el bajo.
---------------------------------------------------------------------------------------------------------------------------------------------
----------------2--3--2--------------------------------------------2----5---2--------------------------2--3--2-------------------------------
---------5----------------------0--------------2---3---------3-------------------------2--3--4--5-------------------------0------------2--3--
-----------------------------1-------1------3-----------------------------------------3--------------------------------1-------1-----3-------

Aca entra La voz.
-----------------------------------------------------------------------------------------------------------------------------------------------------------
--------5-5-5-5---------5-5---------------7-7-7-7-------7-7------------3--3-3-3--2-------5--5-5-5-5---7----------------------------------------------------
---3--------------3--3-------3-4-5---5--------------5---------5---7----------------3---------------------3---3------------3-------3---3---------3--------
--------------------------------------------------------------------------------------------------------------------3---5-------5----------3--5--------5---


--------------------------------------------------------------------------------------------------------7--7----------7--------5/7----5--------------
-------5-5-5-5---------5-5--------------7-7-7-7-------7-7------------3--3-3-3--2-------5--5-5-5-5---7---------5---7-------7-------------------7----5-
---3-------------3--3-------3-4-5---5-------------5---------5---7-------------------3----------------------------------------------------------------
-----------------------------------------------------------------------------------------------------------------------------------------------------

Estribillo
------------------------------------------------------------------------------------
------------------------------------------------------------------------------------
------0-0----------------2-2-------3---3-----------3-------3----3---------3---------
1--1--------1------3--3--------3----------3----5-------5-----------3---5------5-----

------------------------------------------------------------------------------------------------
------------------------------------------------------------------------------------------------
------0-0----------------2-2----------------3-----5---------------------------------------------
1--1--------1------3--3------------5-5-5--------------------------------------------------------

----------------------------------------------------------------------------------------------
----------------------------------------------------------------------------------------------
------0-0----------------2-2-------3---3--3-----------3---------------------------------------
1--1--------1------3--3--------3--------------3-----5-----------------------------------------


Despues de esto... vuelve ala primer parte y repite todo de nuevo....
Suggest correction
Give kudos to tab author, rate the tab!
1 2 3 4 5
comments
print report bad tab
guest
You may want to rate the tab now too:
select rating
Wanna post a correction for this tab? Suggest correction