Oops, an error
Loading. Please wait.

El Olvidado Tab

97 views 1 this week
no commentswrite comment
1 2 3 4 5
3 more votes to show rating
add to favorites
launch autoscroll
font size
0
reset
how to read this tab
guitar tuner
×
Best way to learn
"El Olvidado"
Autoscroll
slow
fast
+/-
esc
set tempo
stop
Aquí están los dos solos de la canción
que son muy fáciles pero que no estaban ...


Solo de Teclado:

E|-------13/15-----------------------------------------|
B|-------------------13---17--13--17--15---------------|
G|--12--------------------------------------17--14-----|
D|-----------------------------------------------------|
A|-----------------------------------------------------|
E|-----------------------------------------------------|

E|-----------------------------------------------------|
B|---15h17--15------------15h17---15-------------------|
G|--------------17--14----------------17--14--17-------|
D|-----------------------------------------------------|
A|-----------------------------------------------------|
E|-----------------------------------------------------|

E|-------------------------------|
B|-------------------------------|
G|---14--12----------------------|
D|----------14-12-10-------------|
A|-------------------12-10-------|
E|-------------------------12----|

Solo de Guitarra:

E|--------------------------------------------------------|
B|--------------------------------------------------------|
G|--------------------------------------------------------|
D|-------------10--9--7-----------------------------------|
A|------7--10------------10--8--7--8--10----10/12---------|
E|---8---------------------------------------------10-----|

E|--------------------------------------------------------|
B|-------------------------13--12-------------------------|
G|---------------------------------14--10--14--14/17------|
D|--------------------------------------------------------|
A|---10/12---10--10---------------------------------------|
E|--------------------------------------------------------|

E|-------------15--------------------------|
B|---15/17-----------17/13--13-------------|
G|-----------------------------------------|
D|-----------------------------------------|
A|-----------------------------------------|
E|-----------------------------------------|
Suggest correction
Give kudos to tab author, rate the tab!
1 2 3 4 5
comments
print report bad tab
guest
You may want to rate the tab now too:
select rating
Wanna post a correction for this tab? Suggest correction