Oops, an error
Loading. Please wait.

El Olvidado Bass Tab

version 2
version 2

Whole song

88 views 1 this week
no commentswrite comment
1 2 3 4 5
3 more votes to show rating
add to favorites
launch autoscroll
font size
0
reset
guitar tuner
×
Best way to learn
"El Olvidado"
Autoscroll
slow
fast
+/-
esc
set tempo
stop
INTRO
G|----------------------------------------------------|
D|-----2-3-2--------------2-5-2----------232----------|
A|-5-----------030--23%--3--------2-3-45------030--23-|
E|-----------1-----3------------3------------1----3---|

VERSO1
G|------------------------------------------------------------------------------------|	
D|-----5555------55-------7777------77----3-333-2-0--55-555-77------------------------|
A|-3-3------33-3----345-5------55-5----57----------------------33-3--3-33-3--3-33-----|
E|-----------------------------------------------------------------35-5----35-5-------|

VERSO1
G|----------------------------------------------------------------------------------------------|	
D|-----5555------55-------7777------77----3-333-2-0--55-555-79-10-10-----10----10/1210----------|
A|-3-3------33-3----345-5------55-5----57---------------------------10-12---12---------12-10\---|
E|----------------------------------------------------------------------------------------------|

ESTRIBILLO           x2
G|---------------------------------------|---------------------------------------------------------------|	
D|---------------------------------------|---------------------------------------------------------------|
A|-----030-------252--33-3--3-33-3--3-33-|-----030-------252---------3-5------030-------252--33-3--3-3---|
E|-1-1----1-33-3----3-----35-5----35-5---|-1-1----1-33-3----3--5-5-55-----1-1----1-33-3----3-----35-5----|

PUENTE
G|----------------------------------------------------------|	
D|-2-5-2----------232-----------2-5-2----------232----------|
A|3--------2-3-45------030--23-3--------2-3-45------030--23-|
E|-------3------------1----3----------3------------1----3---|

VERSO2
G|------------------------------------------------------------------------------------|	
D|-----5555------55-------7777------77----3-333-2-0--55-555-77------------------------|
A|-3-3------33-3----345-5------55-5----57----------------------33-3--3-33-3--3-33-----|
E|-----------------------------------------------------------------35-5----35-5-------|

VERSO2
G|----------------------------------------------------------------------------------------------|	
D|-----5555------55-------7777------77----3-333-2-0--55-555-79-10-10-----10----10/1210----------|
A|-3-3------33-3----345-5------55-5----57---------------------------10-12---12---------12-10\---|
E|----------------------------------------------------------------------------------------------|

ESTRIBILLO           x2
G|---------------------------------------|---------------------------------------------------------------|	
D|---------------------------------------|---------------------------------------------------------------|
A|-----030-------252--33-3--3-33-3--3-33-|-----030-------252---------3-5------030-------252--33-3--3-3---|
E|-1-1----1-33-3----3-----35-5----35-5---|-1-1----1-33-3----3--5-5-55-----1-1----1-33-3----3-----35-5----|

PUENTE2
G|-----------------------------------------------------------------------------------|
D|-33-3--3-3-33-3--3-3---7777------77----3-333-2-0--55-555-77------------------------|
A|-----35-5------35-5--5------55-5----57----------------------33-3--3-33-3--3-33-----|
E|----------------------------------------------------------------35-5----35-5-------|

PUENTE2
G|----------------------------------------------------------------------------------------------|
D|-33-3--3-3-33-3--3-3---7777-------77----3-333-2-0--55-555-79-10-10-----10----10/1210----------|
A|-----35-5------35-5---5------55-5----57---------------------------10-12---12---------12-10\---|
E|----------------------------------------------------------------------------------------------|

ESTRIBILLO           x2
G|---------------------------------------|------------------------------------------------------------------------|	
D|---------------------------------------|------------------------------------------------------------------------|
A|-----030-------252--33-3--3-33-3--3-33-|-----030-------252---------3-5------030-------252--33-3--3-33--3--3-33--|
E|-1-1----1-33-3----3-----35-5----35-5---|-1-1----1-33-3----3--5-5-55-----1-1----1-33-3----3-----35-5-----35-5----|

FINAL
G|-----------------------|	
D|--2-5-2----------232---|
A|-3--------2-3-45-------|
E|--------3------------1-|


SI TIENEN ALGUNA DUDA MANDENME UN AMIL A CHucky_punk@
Suggest correction
Give kudos to tab author, rate the tab!
1 2 3 4 5
comments
print report bad tab
guest
You may want to rate the tab now too:
select rating
Wanna post a correction for this tab? Suggest correction