Oops, an error
Loading. Please wait.

Intifada bass

version 2
version 2

Whole song

Interactive

by Ska-P
822 views 1 this week
no commentswrite comment
1 2 3 4 5
3 more votes to show rating
add to favorites
×
Save as Personal and add changes to this tab that will be seen only by you. Learn more ›
×
You can save this tab as Personal to edit and correct it or add notes. All changes will be seen only by you. Learn more »
launch autoscroll
font size
0
reset
guitar tuner
edit
Autoscroll
slow
fast
+/-
esc
set tempo
stop
Author
-------------------------------------------------------------------------------
			     Intifada - Ska P
-------------------------------------------------------------------------------

Tabbed By : ManiBass
e-mail: manuel.koehler@arcor.de

Tuning: E,A,D,G

Intro

G|---------------------------------|
D|---------------------------------|4x
A|---------------------------------|
E|---------------------------------|
   1 & 2 & 3 & 4 & 1 & 2 & 3 & 4 &

G|--------------------------------|
D|--------------------------------|4x
A|---------------4-4---3-3--------|
E|-1-1---4-4-4--------------------|
   1 & 2 & 3 & 4 & 1 & 2 & 3 & 4 &

G|-----------------------------------------------------------------|
D|-----------------------------------------------------------------|2x
A|---------------------------------4-4-4-4-4-4-4-4-3-3-3-3-3-1-3-3-|
E|-1-1-1-1-1-1-1-1-4-4-4-4-4-4-4-4---------------------------------|
   1 & 2 & 3 & 4 & 1 & 2 & 3 & 4 & 1 & 2 & 3 & 4 & 1 & 2 & 3 & 4 &

Verse 1

G|-----5-----------------------------------------------------------|
D|-3-6---6-3-----------1-------1---------1-----------2-5-2-----1-2-|2x
A|-----------6-4-3---3---3---3---3-4-3-4---4-----4-3-------3-4-----|
E|-----------------4-------4-----------------1-4-------------------|
   1 2 3 4 1 2 3 4 1 2 3 4 1 2 3 4 1 2 3 4 1 2 3 4 1 2 3 4 1 2 3 4 

Chorus 1


G|---------------------------------|
D|---------------------------------|4x
A|-----------------4-4---3---3-3-3-|
E|-1---1---4---4-------------------|
   1 & 2 & 3 & 4 & 1 & 2 & 3 & 4 &

G|-----------------------------------------------------------------|
D|-----------------------------------------------------------------|2x
A|---------------------------------4-4-4-4-4-4-4-4-3-3-3-3-3-1-3-3-|
E|-1-1-1-1-1-1-1-1-4-4-4-4-4-4-4-4---------------------------------|
   1 & 2 & 3 & 4 & 1 & 2 & 3 & 4 & 1 & 2 & 3 & 4 & 1 & 2 & 3 & 4 &

Verse 2

G|-----5-----------------------------------------------------------|
D|-3-6---6-3-----------1-------1---------1-----------2-5-2-----1-2-|2x
A|-----------6-4-3---3---3---3---3-4-3-4---4-----4-3-------3-4-----|
E|-----------------4-------4-----------------1-4-------------------|
   1 2 3 4 1 2 3 4 1 2 3 4 1 2 3 4 1 2 3 4 1 2 3 4 1 2 3 4 1 2 3 4

Chorus 2

G|---------------------------------|
D|---------------------------------|4x
A|-----------------4-4---3---3-3-3-|
E|-1---1---4---4-------------------|
   1 & 2 & 3 & 4 & 1 & 2 & 3 & 4 &

G|-----------------------------------------------------------------|
D|-----------------------------------------------------------------|
A|-1-1-1-1-1-1-1-1-1-1-1-1-1-1-1-1-3-3-3-3-3-3-3-3-3-3-3-3-3-3-3-3-|
E|-----------------------------------------------------------------|
   1 & 2 & 3 & 4 & 1 & 2 & 3 & 4 & 1 & 2 & 3 & 4 & 1 & 2 & 3 & 4 &

G|-----------------------------------------------------------------|
D|-----------------------------------------------------------------|
A|-----------------------------------------------------------------|
E|-1---1-1-1-1-1-1-1-1-1-1-1---3---4-4-4-4-4-4-4-4-4-4-4-4-4-4-4-4-|
   1 & 2 & 3 & 4 & 1 & 2 & 3 & 4 & 1 & 2 & 3 & 4 & 1 & 2 & 3 & 4 &

G|-----------------------------------------------------6-----------|
D|-----------------------------------------------------------------|
A|-6---6-6-6-6-6-6-6-6-6-6-6-6-6-6-4-4-4-4-4-4-4-4-4-----------4---|
E|-----------------------------------------------------------------|
   1 & 2 & 3 & 4 & 1 & 2 & 3 & 4 & 1 & 2 & 3 & 4 & 1 & 2 & 3 & 4 &

G|-----------------------------------------------------------------|
D|-----------------------------------------------------------------|
A|-----------------------------------------------------------------|
E|-1---1-1-1-1-1-1-1-1-1-1-1---3---4-4-4-4-4-4-4-4-4-4-4-4-4-4-4-4-|
   1 & 2 & 3 & 4 & 1 & 2 & 3 & 4 & 1 & 2 & 3 & 4 & 1 & 2 & 3 & 4 &

G|-----------------------------------------------------------------|
D|-----------------------------------------------------------------|
A|-6---6-6-6-6-6-6-6-6-6-6-6-6-6-6-4-4-4-4-4-4-4-4-4-4-4-4-4-4-4-4-|
E|-----------------------------------------------------------------|
   1 & 2 & 3 & 4 & 1 & 2 & 3 & 4 & 1 & 2 & 3 & 4 & 1 & 2 & 3 & 4 &

G|-----------------------------------------------------------------|
D|-----------------------------------------------------------------|2x
A|-------------------------4---4-4-3---3-3-3-3-3-3-3-3-3-3-3-3-3-3-|
E|-1---1-1-1-1-1-1-4---4-4-----------------------------------------|
   1 & 2 & 3 & 4 & 1 & 2 & 3 & 4 & 1 & 2 & 3 & 4 & 1 & 2 & 3 & 4 &

G|-----------------------------------------------------------------|
D|-----------------------------------------------------------------|2x
A|---------------------------------4-4-4-4-4-4-4-4-3-3-3-3-3-1-3-3-|
E|-1-1-1-1-1-1-1-1-4-4-4-4-4-4-4-4---------------------------------|
   1 & 2 & 3 & 4 & 1 & 2 & 3 & 4 & 1 & 2 & 3 & 4 & 1 & 2 & 3 & 4 &

Verse 3

G|-----5-------------------------------------------------------------|
D|-3-6---6-3-----------1-------1---------1---------------------------|
A|-----------6-4-3---3---3---3---3-4-3-4---4-----4-3-------3---3---3-|
E|-----------------4-------4-----------------1-4---------------------|
   1 2 3 4 1 2 3 4 1 2 3 4 1 2 3 4 1 2 3 4 1 2 3 4 1 2 3 4 1 2 & 3 4

G|-----5-----------------------------------------------------------|
D|-3-6---6-3-----------1-------1---------1-----------2-5-2-----1-2-|
A|-----------6-4-3---3---3---3---3-4-3-4---4-----4-3-------3-4-----|
E|-----------------4-------4-----------------1-4-------------------|
   1 2 3 4 1 2 3 4 1 2 3 4 1 2 3 4 1 2 3 4 1 2 3 4 1 2 3 4 1 2 3 4

Chorus 3

G|---------------------------------|
D|---------------------------------|4x
A|-----------------4-4---3---3-3-3-|
E|-1---1---4---4-------------------|
   1 & 2 & 3 & 4 & 1 & 2 & 3 & 4 &

G|-----------------------------------------------------------------|
D|-----------------------------------------------------------------|
A|-1-1-1-1-1-1-1-1-1-1-1-1-1-1-1-1-3-3-3-3-3-3-3-3-3-3-3-3-3-3-3-3-|
E|-----------------------------------------------------------------|
   1 & 2 & 3 & 4 & 1 & 2 & 3 & 4 & 1 & 2 & 3 & 4 & 1 & 2 & 3 & 4 &

G|-----------------------------------------------------------------|
D|-----------------------------------------------------------------|
A|-----------------------------------------------------------------|
E|-1---1-1-1-1-1-1-1-1-1-1-1---3---4-4-4-4-4-4-4-4-4-4-4-4-4-4-4-4-|
   1 & 2 & 3 & 4 & 1 & 2 & 3 & 4 & 1 & 2 & 3 & 4 & 1 & 2 & 3 & 4 &

G|-----------------------------------------------------6-----------|
D|-----------------------------------------------------------------|
A|-6---6-6-6-6-6-6-6-6-6-6-6-6-6-6-4-4-4-4-4-4-4-4-4-----------4---|
E|-----------------------------------------------------------------|
   1 & 2 & 3 & 4 & 1 & 2 & 3 & 4 & 1 & 2 & 3 & 4 & 1 & 2 & 3 & 4 &

G|-----------------------------------------------------------------|
D|-----------------------------------------------------------------|
A|-----------------------------------------------------------------|
E|-1---1-1-1-1-1-1-1-1-1-1-1---3---4-4-4-4-4-4-4-4-4-4-4-4-4-4-4-4-|
   1 & 2 & 3 & 4 & 1 & 2 & 3 & 4 & 1 & 2 & 3 & 4 & 1 & 2 & 3 & 4 &

G|-----------------------------------------------------------------|
D|-----------------------------------------------------------------|
A|-6---6-6-6-6-6-6-6-6-6-6-6-6-6-6-4-4-4-4-4-4-4-4-4-4-4-4-4-4-4-4-|
E|-----------------------------------------------------------------|
   1 & 2 & 3 & 4 & 1 & 2 & 3 & 4 & 1 & 2 & 3 & 4 & 1 & 2 & 3 & 4 &

G|-----------------------------------------------------------------|
D|-----------------------------------------------------------------|
A|-----------------------------------------------------------------|
E|-1---1-1-1-1-1-1-1-1-1-1-1---3---4-4-4-4-4-4-4-4-4-4-4-4-4-4-4-4-|
   1 & 2 & 3 & 4 & 1 & 2 & 3 & 4 & 1 & 2 & 3 & 4 & 1 & 2 & 3 & 4 &

G|-----------------------------------------------------6-----------|
D|-----------------------------------------------------------------|
A|-6---6-6-6-6-6-6-6-6-6-6-6-6-6-6-4-4-4-4-4-4-4-4-4-----------4---|
E|-----------------------------------------------------------------|
   1 & 2 & 3 & 4 & 1 & 2 & 3 & 4 & 1 & 2 & 3 & 4 & 1 & 2 & 3 & 4 &

G|-----------------------------------------------------------------|
D|-----------------------------------------------------------------|
A|-----------------------------------------------------------------|
E|-1---1-1-1-1-1-1-1-1-1-1-1---3---4-4-4-4-4-4-4-4-4-4-4-4-4-4-4-4-|
   1 & 2 & 3 & 4 & 1 & 2 & 3 & 4 & 1 & 2 & 3 & 4 & 1 & 2 & 3 & 4 &

G|-----------------------------------------------------------------|
D|-----------------------------------------------------------------|
A|-6---6-6-6-6-6-6-6-6-6-6-6-6-6-6-4-4-4-4-4-4-4-4-4-4-4-4-4-4-4-4-|
E|-----------------------------------------------------------------|
   1 & 2 & 3 & 4 & 1 & 2 & 3 & 4 & 1 & 2 & 3 & 4 & 1 & 2 & 3 & 4 &

G|-----------------------------------------------------------------|
D|-----------------------------------------------------------------|4x
A|-------------------------6---6-6-5---5-5-5-5-5-5-5-5-5-5-5-5-5-5-|
E|-3---3-3-3-3-3-3-6---6-6-----------------------------------------|
   1 & 2 & 3 & 4 & 1 & 2 & 3 & 4 & 1 & 2 & 3 & 4 & 1 & 2 & 3 & 4 &

G|---|
D|---|
A|---|
E|-3-|

            
            
Suggest correction
Creating personal tab
Creating personal tab
You can edit any tab online and save it as your Personal.

You can edit, replace or remove any tab part or add personal notes – all changes will be seen only by you.

Personal tabs can be accessed anytime from any device, even offline.
Learn more »
Give kudos to tab author, rate the tab!
1 2 3 4 5
comments
print report bad tab
guest
You may want to rate the tab now too:
select rating
Wanna post a correction for this tab? Suggest correction