Oops, an error
Loading. Please wait.

Mc Dolar Tab

by Ska-P
67 views 1 this week
no commentswrite comment
1 2 3 4 5
3 more votes to show rating
add to favorites
×
Save as Personal and add changes to this tab that will be seen only by you. Learn more ›
×
You can save this tab as Personal to edit and correct it or add notes. All changes will be seen only by you. Learn more »
save as personal
new!
launch autoscroll
font size
0
reset
how to read this tab
guitar tuner
Autoscroll
slow
fast
+/-
esc
set tempo
stop
En esta transcripción, dejo el tema como está, ya que me parece correcto,
pero acá les dejo las trompetas, y le letra completa.

E ---------------------------------------------
B ---------------------------------------------
G ---------------------------------------------
D ------2------------------2----3-2------------
A --3-5---5--3---------3-5--5-3-----5----------
E -------------5------3---------------3--------

E -----------------------------------------------
B -----------------------------------------------
G -----------------------------------------------
D ------2-----3----------------------------------
A --3-5---5--3----------3--3-5-3-----3---------3-
E ------------------3-5----------5-3-------3-5---

INTRO: A
       D A E
       A D A E A

  A                           D
A-Hay gente que no puede ver mas alla
         A                   E
  que razona de una forma anal
       A           D
  intelectual, de copa y sofa
       A        E       A
  tu mente no da para mas

A-Hay una historia que te voy a contar
  sobre una gran multinacional
  donde acudes tu a colaborar
  de forma muy habitual

A-Deforestando de una forma bestial
  sin respeto a la vida primal
  Amazonas es su granja industrial
  de gran sufrimiento animal

A-Todo consiste en darle muy buen sabor
  a la mierda que vas a tragar
  la television y un payaso cabron
  se mofan de la realidad

  C#m                       D
B-Y el monstruo avanza deborando todo
  C#m                 D
  como un virus terminal
  C#m                     D            E
  y hasta en Somalia ya tienen su sucursal
                   A
  Yo me voy al bar

Coro:
               D         A
  MC DOLAR... ayayayayayayai
               E
  MC DOLAR... ayayayayai
  A            D
  MC DOLAR... ayayayayayayai
  A            E     A
  Me niego a colaborar

A-Este negocia tan cretino y ladron
  de una forma puede terminar
  es la explotacion del trabajador
  que ves tras ese mostrador

A-Visto lo visto yo me piro de aqui
  y que venga la guardia civil
  acompañame, te invito a ingerir
  las tapas del bar de fermín.

Bm Y el monstruo...

Coro: MC DOLAR...

B-Y el monstruo...

Coro: MC DOLAR
Suggest correction
Give kudos to tab author, rate the tab!
1 2 3 4 5
comments
print report bad tab
guest
Wanna post a correction for this tab? Suggest correction