Oops, an error
Loading. Please wait.

Ni Fu Ni Fa tab

version 1
version 1

Whole song

Interactive

by Ska-P
3,655 views 1 this week
no commentswrite comment
1 2 3 4 5
3 more votes to show rating
add to favorites
×
Save as Personal and add changes to this tab that will be seen only by you. Learn more ›
×
You can save this tab as Personal to edit and correct it or add notes. All changes will be seen only by you. Learn more »
launch autoscroll
font size
0
reset
how to read this tab
guitar tuner
edit
Autoscroll
slow
fast
+/-
esc
set tempo
stop
Author
Ni Fu Ni Fa- Ska-P

Intro Pt. 1
E|----------------------------------------------------|
H|----------------------------------------------------|
G|---------------------------------------------5------|
D|--7---5-5—-5-5---7---5-5—-5---7---5-5—-5-5---5---2--|
A|--7---5-5—-5-5---7---5-5—-5---7---5-5—-5-5---3---2--|
E|--5---3-3—-3-3---5---3-3--3---5---3-3—-3-3-------0--|

Intro Pt. 2
E|--5-5-5-5-3-3-3-3-5-5-5-5-3-33---5-5-5-5-3-3-3-3-3-3-3-3-0-0-0-0—-5--|
H|--5-5-5-5-3-3-3-3-5-5-5-5-3-33---5-5-5-5-3-3-3-3-5-5-5-5-0-0-0-0—-5--|
G|--5-5-5-5-4-4-4-4-5-5-5-5-4-44---5-5-5-5-4-4-4-4-5-5-5-5-1-1-1-1—-5--|
D|---------------------------------------------------------------------|
A|---------------------------------------------------------------------|
E|---------------------------------------------------------------------|

Verse 1 *= x8
                               End:
E|--1*--3*--0*--5*--1*--3*-|--0-0-0-00-|
H|--1---3---0---5---1---3--|--0-0-0-00-|
G|--2---4---1---5---2---4--|--1-1-1-11-|
D|-------------------------|-----------|
A|-------------------------|-----------|
E|-------------------------|-----------|
Then play intro pt.2

And this:  (left hand muting a few times)
E|--5--|
H|--5--|
G|--5--|
D|-----|
A|-----|
E|-----|
Then play verse 1 again

Chorus
         x4          End
E|------------------|---|
H|------------------|---|
G|------------------|---|
D|--7---5---3—--2---|-7-|
A|--7---5-—-3---2---|-7-|
E|--5---3---1---0---|-5-|
Then stop

Short Bridge   #= x4

E|--5#--1#--3#--0#--|
H|--5---1---3---0---|
G|--5---2---4---1---|
D|------------------|
A|------------------|
E|------------------|
Then stop again for keyboard-solo

And continue:   \= slide down

E|--5*--3*--3*--5------|
H|--5---5---3---5------|
G|--5---5---4---5------|
D|---------------------|
A|---------------------|
E|-----------------17\-|

Interlude:   x2

E|------------------------------|
H|------------------------------|
G|-------*----------------------|
D|---*--5---—*--7-6-5-4---------|
A|--7---3-—-5-----------8-7-6-7-|
E|--5-------3-------------------|




E|--5-5-5-5-3-3-3-3-5-5-5-5-3-33---5-5-5-5-3-3-3-3-3-3-3-3-0-0-0-0-|
H|--5-5-5-5-3-3-3-3-5-5-5-5-3-33---5-5-5-5-3-3-3-3-5-5-5-5-0-0-0-0-|
G|--5-5-5-5-4-4-4-4-5-5-5-5-4-44---5-5-5-5-4-4-4-4-5-5-5-5-1-1-1-1—|
D|-----------------------------------------------------------------|
A|-----------------------------------------------------------------|
E|-----------------------------------------------------------------|

E|--5-5-5-5-3-3-3-3-5-5-5-5-3-33---5-5-5-5-3-3-3-3-3-3-3-3----------------|
H|--5-5-5-5-3-3-3-3-5-5-5-5-3-33---5-5-5-5-3-3-3-3-5-5-5-5----4---5-4-7---|
G|--5-5-5-5-4-4-4-4-5-5-5-5-4-44---5-5-5-5-4-4-4-4-5-5-5-5--5---5-—-----4-|
D|------------------------------------------------------------------------|
A|------------------------------------------------------------------------|
E|------------------------------------------------------------------------|

Verse 3  x4

E|--5---5--5-3--3-3-3-3--3---1---1--1-0--0-0-0-0--0--|
H|--5---5--5-3--3-3-3-3--3---1---1--1-0--0-0-0-0--0--|
G|--5---5--5-4--4-4-4-4--4---2---2--2-1--1-1-1-1--1--|
D|--7---7--7-5--5-5-5-5--5---3---3--3-2--2-2-2-2--2--|
A|---------------------------------------------------|
E|---------------------------------------------------|

Chorus
         x4
E|------------------|--------------------|
H|------------------|--------------------|
G|------------------|--------------------|
D|--7---5---3—--2---|-3---2---3---2---7--|
A|--7---5-—-3---2---|-3---2---3---2---7--|
E|--5---3---1---0---|-1---0---1---0---5--|


Suena el timbre, todo preparado, la función va a comenzar
En el ambiente se puede respirar la campaña electoral
Más carteles, televisión y radio contaminan mi ciudad
Con sonrisas de cordialidad nos pretenden embaucar, ¢chacal! 

Más debates y aburridos mítines sin credibilidad
Tras esa careta angelical se refugia la mezquindad
Ya he votado y todo ha terminado, te he "dejao" de interesar
Tu mirada ha dejado de brillar, hasta la próxima ¢chaval! 

Ni fu ni fa
Democracia que se convierte en banalidad
Puedes elegir sin diversidad
Si no estás con los gigantes te aplastarán
Toma voto inútil

Cada cuatro años te dan la oportunidad
De votar a blanco o negro, no puedes optar a más
Sumiso como un pavo, esperando la navidad estoy
Aguardando el milagro

Ninguno de vosotros me puede representar
Dame democracia en la que pueda participar
Nos engañan con un cebo, la quimera de la libertad
Todo es patraña, ¢oi! 

La ruleta gira y gira

Ni fu ni fa
Democracia que se convierte en banalidad
Puedes elegir sin diversidad
Si no estás con los gigantes te aplastarán
A mí el voto útil, ni fu ni fa

Ni fu ni fa

Preparados para jugar
La ruleta va a comenzar
Vengan, jueguen y pierdan, ya no va más!


            
            
Suggest correction
Creating personal tab
Creating personal tab
You can edit any tab online and save it as your Personal.

You can edit, replace or remove any tab part or add personal notes – all changes will be seen only by you.

Personal tabs can be accessed anytime from any device, even offline.
Learn more »
Give kudos to tab author, rate the tab!
1 2 3 4 5
comments
print report bad tab
guest
You may want to rate the tab now too:
select rating
Wanna post a correction for this tab? Suggest correction