Oops, an error
Loading. Please wait.

Poder Pa'l Pueblo Bass Tab

67 views 1 this week
1 commentread comment
1 2 3 4 5
2 more votes to show rating
add to favorites
launch autoscroll
font size
0
reset
guitar tuner
Autoscroll
slow
fast
+/-
esc
set tempo
stop
Help us to improve Ultimate-Guitar.com Take our survey!
×
G||--------------------|--------------------|--------------------|
D||--------------------|--------------------|--------------------|
A||--5-----------------|--5-----------------|-----------1--------|
E||-----------5--------|-----------5--------|--3-----------------|

--------------------|--------------------|--------------------|
--------------------|--------------------|--------------------|
--5-----------------|-----------1--------|--5-----------------|
-----------5--------|--3-----------------|-----------5--------|

--------------------|-----------------------|------------------------|
--------------------|-----------------------|------------------------|
--------------------|-----------------------|--5-------4--5--5-----4-|
--3--------0--------|--5----3----1----0----|-------5-----------5-----|

----------------------|------------3--2--3-----|---------------------|
----------------------|--5------5-----------5--|---------------------|
5------4--5--5--------|------5-----------------|--5------4--5--5-----|
----5-----------5--6--|------------------------|------5----------5-6-|

-------------3--2--3-----|-------------------------|-----------------|
--5-------5-----------5--|-------------------------|-----------------|
-------5-----------------|--5-------4--5--5--------|-----------------|
-------------------------|-------5-----------5--6--|--3--------4-----|

--------------------|------------------------|-----------------------|
--------------------|------------------------|-----------------------|
--------------------|--5------4--5--5-----4--|--5-------4--5--5------|
-5/----3----1----0--|------5-----------5-----|-------5-----------5-6-|

-----------3--2--3-----|-----------------------|------------3--2-3---|
5-------5-----------5--|-----------------------|--5------5---------5-|
-----5-----------------|--5-----4--5--5--------|------5--------------|
-----------------------|-----5-----------5--6--|---------------------|

------------------------|--------------------|-----------------------|
------------------------|--------------------|-----------------------|
-5-------4--5--5--------|--------------------|-----------------------|
------5-----------5--6--|--3--------4--------|--5/----3----1----0----|

--------------------------|--------------------------|
--------------------------|--------------------------|
--------------------------|--------------------------|
--3--3--3--3--3--3--3--3--|--3--3--3--3--3--3--3--3--|

--------------------------|--------------------------|
--------------------------|--------------------------|
--5--5--5--5--5--5--5--5--|--5--5--5--5--5--5--5--5--|
--------------------------|--------------------------|

------------------------|------------------------|-------------------|
------------------------|------------------------|-------------------|
------------------------|------------------------|-------------------|
-3--3--3--3--3--3--3--3-|-3--3--3--3--3--3--3--3-|-----5--5----5--5--|

--------------------|-----------------------|------------------------|
--------------------|-----------------------|------------------------|
--------------------|-5-------4--5--5-----4-|-5-------4--5--5--------|
-5----3----1----0---|------5-----------5----|------5-----------5--6--|

------------3--2--3----|----------------------|-----------3--2--3----|
-5-------5-----------5-|----------------------|-5------5-----------5-|
------5----------------|-5------4--5--5-------|-----5----------------|
-----------------------|-----5-----------5--6-|----------------------|

-----------------------|-------------------|-----------------------|
-----------------------|-------------------|-----------------------|
-5-------4--5--5-------|-------------------|-----------------------|
------5-----------5--6-|-3--------4--------|--5----3----1----0-----|

-----------------------|-----------------------|----------3--2--3----|
-----------------------|-----------------------|-5-----5-----------5-|
-5-------4--5--5-----4-|-5-------4--5--5-------|----5----------------|
------5-----------5----|------5-----------5--6-|---------------------|

----------------------|-----------3--2--3----|-----------------------|
----------------------|-5------5-----------5-|-----------------------|
-5------4--5--5-------|-----5----------------|-5-------4--5--5-------|
-----5-----------5--6-|----------------------|------5-----------5--6-|

--------------------|-----------------------|-----------------------|
--------------------|-----------------------|-----------------------|
--------------------|-----------------------|--5--5-------5--5------|
--3--------4--------|--5----3----1----0----|------------------------|

------------------|-------------------------|------------------------|
------------------|-------------------------|------------------------|
-5--5-------5--5--|-------------------------|-------------4--4--4--4-|
------------------|-3--3--3--3--3--3--3--3--|-5--5--5--5-------------|

-------------------|--------------------|-------------------------|
-------------------|--------------------|-------------------------|
--5--5-------5--5--|--5--5-------5--5---|-------------------------|
-------------------|--------------------|--3-------3--3--3-----3--|

---------------------------|--------------------------|
---------------------------|--------------------------|
---------------------------|--------------------------|
--3--3--3--3/--5--5--5--5--|--5--6--5--6--5--6--5--6--|

--------------------------|--------------------------|
--------------------------|--------------------------|
--------------------------|--------------------------|
--5--6--5--6--5--6--5--6--|--5--6--5--6--5--6--5--6--|

--------------------------|--------------------------|
--7--8--7--8--7--8--7--8--|--------------------------|
--------------------------|--------------------------|
--------------------------|--3--3--3--3--3--3--3--3--|

--------------------------|--------------------------|
--------------------------|--------------------------|
--------------------------|--5--5--5--5--5--5--5--5--|
--3--3--3--3--3--3--3--3--|--------------------------|

--------------------------|--------------------------|
--------------------------|--------------------------|
--5--5--5--5--5--5--5--5--|--------------------------|
--------------------------|--3--3--3--3--3--3--3--3--|

-------------------------|---------------------|---------------------|
-------------------------|---------------------|---------------------|
-------------------------|---------------------|---------------------|
-3--3--3--3--3--3--3--3--|-5--5-------5--5-----|-5----3----1----0----|

--------------2--0--------|---------------------------|
-----2--3--5--------3--2--|-----2--3--5--6br----7b----|
--5-----------------------|--5------------------------|
--------------------------|---------------------------|

--------------------------|--------------------------|
--------------------------|-----2--3--5--6b----6b----|
--------------------5--7--|--5-----------------------|
--3--5--6--8--6--8--------|--------------------------|

--------------------------|--------------------------|
--------------------------|--------------------------|
--------------------------|--------------------------|
--3--3--3--3--6--5--6--5--|--3--3--3--3--6--5--6--5--|

--------------------------|--------------------------|
--------------------------|--------------------------|
--------------------------|--------------------------|
--3--3--3--3--6--5--6--5--|--5--5--5--5--3--5--5--5--|

--------------2--0--------|---------------------------|
-----2--3--5--------3--2--|-----2--3--5--6br----7b----|
--5-----------------------|--5------------------------|
--------------------------|---------------------------|

--------------------------|--------------------------|
--------------------------|-----2--3--5--6b----6b----|
--------------------5--7--|--5-----------------------|
--3--5--6--8--6--8--------|--------------------------|

--------------------------|--------------------------|
--------------------------|--------------------------|
--------------------------|--------------------------|
--3--3--3--3--6--5--6--5--|--3--3--3--3--6--5--6--5--|

--------------------------|--------------------------|
--------------------------|--------------------------|
--------------------------|--------------------------|
--3--5--5--5--3--5--5--5--|--3--5--5--5--3--5--5--5--|

--------------------------|--------------------------|
--------------------------|--------------------------|
--------------------------|--------------------------|
--3--3--3--3--3--3--3--3--|--3--3--3--3--3--3--3--3--|

--------------------------|--------------------------|
--------------------------|--------------------------|
--5--5--5--5--5--5--5--5--|--5--5--5--5--5--5--5--5--|
--------------------------|--------------------------|

-------------------------|-------------------------|-----------------|
-------------------------|-------------------------|-----------------|
-------------------------|-------------------------|-----------------|
-3--3--3--3--3--3--3--3--|-3--3--3--3--3--3--3--3--|-5--5-----5--5---|

-------------------|------------------------|------------------------|
-------------------|------------------------|------------------------|
-------------------|-5-------4--5--5-----4--|-5-------4--5--5--------|
-5----3----1----0--|------5-----------5-----|------5-----------5--6--|

-----------3--2--3----|----------------------|-----------3--2--3-----|
-5------5-----------5-|----------------------|-5------5-----------5--|
-----5----------------|-5------4--5--5-------|-----5-----------------|
----------------------|-----5-----------5--6-|-----------------------|

-----------------------|-------------------|-----------------------|
-----------------------|-------------------|-----------------------|
-5-------4--5--5-------|-------------------|-----------------------|
------5-----------5--6-|-3--------4--------|--5----3----1----0-----|

----------------------|----------------------|-----------3--2--3-----|
----------------------|----------------------|-5------5-----------5--|
-5------4--5--5-----4-|-5------4--5--5-------|-----5-----------------|
-----5-----------5----|-----5-----------5--6-|-----------------------|

----------------------|-----------3--2--3----|-----------------------|
----------------------|-5------5-----------5-|-----------------------|
-5------4--5--5-------|-----5----------------|-5------4--5--5--------|
-----5-----------5--6-|----------------------|-----5-----------5--6--|

--------------------|----------------------|----------------------|
--------------------|----------------------|----------------------|
--------------------|----------------------|----------------------|
--3--------4--------|--5----3----1----0----|--5----3----1----0----|

----------------------|--------------------|--------------------||
----------------------|--------------------|--------------------||
----------------------|--5-----------------|--5-----------------||
--5----3----1----0----|-----------5--------|-----------0--------||
Suggest correction
Give kudos to tab author, rate the tab!
1 2 3 4 5
comments
print report bad tab
1 comment total.
0 reply
ivanrb962 35 Oct 11, 2015 12:25 PM

muy buena tab! podrias dividirlas en segmentos? en varias partes? porque de corrrido se complica.. gracias!
*****

guest
You may want to rate the tab now too:
select rating
Wanna post a correction for this tab? Suggest correction