Oops, an error
Loading. Please wait.

Poder Pa'l Pueblo Tab

112 views 1 this week
no commentswrite comment
1 2 3 4 5
3 more votes to show rating
add to favorites
launch autoscroll
font size
0
reset
how to read this tab
guitar tuner
Autoscroll
slow
fast
+/-
esc
set tempo
stop
Help us to improve Ultimate-Guitar.com Take our survey!
×
PODER PA'L PUEBLO!!!

JODER... ALTIRO A HACER RAYITAS

------------------------
---------------------10-
----------9--10--12-----
--12--12----------------
------------------------
------------------------
  Dm

---------10--9--10---------
-10--11-------------11--10-
---------------------------
---------------------------
---------------------------
---------------------------
     A#                 Dm

---------10--9--10-----------------
-10--11-------------11--10---------
----------------------------10-----
--------------------------------12-
-----------------------------------
-----------------------------------
     A#                 Dm

--------------------------------------------
--------------------------10----------------
-----9--10--9--10--9--10------12--10--9-----
-12--------------------------------------12-
--------------------------------------------
--------------------------------------------
        F   E  F   E  F   A   G   F   E  Dm

--------------------
-----------------10-
------9--10--12-----
--12----------------
--------------------
--------------------
  Dm

---------10--9--10---------
-10--11-------------11--10-
---------------------------
---------------------------
---------------------------
---------------------------
     A#                 Dm

---------10--9--10-----------------
-10--11-------------11--10---------
----------------------------10-----
--------------------------------12-
-----------------------------------
-----------------------------------
     A#                 Dm

----------------------------------------------
----------------------------10----------------
-----9--10--9--10--9--10(9)-----12--10--9-----
-12----------------------------------------12-
----------------------------------------------
----------------------------------------------
        F   E  F   E  F     A   G   F   E  Dm

--------------------
-----------------10-
------9--10--12-----
--12----------------
--------------------
--------------------
  Dm

---------10--9--10---------
-10--11-------------11--10-
---------------------------
---------------------------
---------------------------
---------------------------
     A#                 Dm

---------10--9--10-----------------
-10--11-------------11--10---------
----------------------------10-----
--------------------------------12-
-----------------------------------
-----------------------------------
     A#                 Dm

-------------------------------------------
----------------------------10-------------
-----9--10--9--10--9--10(9)-----12--10--9--
-12----------------------------------------
-------------------------------------------
-------------------------------------------
        F  E   F  E   F     A   G   F   E

-10--10--10--10--10--9--10--12--10-
-----------------------------------
-----------------------------------
-----------------------------------
-----------------------------------
-----------------------------------
 Dm

-10--9-----------------
--------11--10--11--10-
-----------------------
-----------------------
-----------------------
-----------------------
 A#         Dm  A#  Dm

---------10--10--9-----9------------------
-10--11------------11-----11--10--11--10--
------------------------------------------
------------------------------------------
------------------------------------------
------------------------------------------
     A#                       Dm  A#  Dm

-10--10--10--10--10--9--10--12--10-
-----------------------------------
-----------------------------------
-----------------------------------
-----------------------------------
-----------------------------------
 Dm

-10--12--13--12--13--12--(12)13--12--------------------
-------------------------------------10----------------
-----------------------------------------12--10--9-----
----------------------------------------------------12-
-------------------------------------------------------
-------------------------------------------------------
         F   E   F   E       F   E   A   G   F   E  Dm

--------------------
-----------------10-
------9--10--12-----
--12----------------
--------------------
--------------------
  Dm

---------10--9--10---------
-10--11-------------11--10-
---------------------------
---------------------------
---------------------------
---------------------------
     A#                 Dm

---------10--9--10-----------------
-10--11-------------11--10---------
----------------------------10-----
--------------------------------12-
-----------------------------------
-----------------------------------
     A#                 Dm

----------------------------------------------
----------------------------10----------------
-----9--10--9--10--9--10(9)-----12--10--9-----
-12----------------------------------------12-
----------------------------------------------
----------------------------------------------
        F   E  F   E  F     A   G   F   E  Dm

--------------------
-----------------10-
------9--10--12-----
--12----------------
--------------------
--------------------
  Dm

---------10--9--10---------
-10--11-------------11--10-
---------------------------
---------------------------
---------------------------
---------------------------
     A#                 Dm

---------10--9--10-----------------
-10--11-------------11--10---------
----------------------------10-----
--------------------------------12-
-----------------------------------
-----------------------------------
     A#                 Dm

-------------------------------------------
----------------------------10-------------
-----9--10--9--10--9--10(9)-----12--10--9--
-12----------------------------------------
-------------------------------------------
-------------------------------------------
        F   E  F   E  F     A   G   F   E


RIFF  D  D  D  D
       C! N! T! FAI!

---------------
---------------
---------------  (guitare)
---------------
-1------7-4-5--
-----3---------

RIFF  D  D  D  D
       C! N! T! FAI!

---------------------
-----1---------------
-3-----3-2-0--2^3^2--  (guitare)
---------------------
---------------------
---------------------

---------------------------------------------
---------------------10-11-10-11-10-11-10-11-
-9-10-9-10-9-10-9-10-------------------------
---------------------------------------------
---------------------------------------------
---------------------------------------------

-12-13-12-13-12-13-12-13-17-18-17-18-17-18-17-
----------------------------------------------
----------------------------------------------
----------------------------------------------
----------------------------------------------
----------------------------------------------

-10--10--10--10--10--9--10--12--10-
-----------------------------------
-----------------------------------
-----------------------------------
-----------------------------------
-----------------------------------
 Dm

-10--9-----------------
--------11--10--11--10-
-----------------------
-----------------------
-----------------------
-----------------------
 A#         Dm  A#  Dm

---------10--10--9-----9------------------
-10--11------------11-----11--10--11--10--
------------------------------------------
------------------------------------------
------------------------------------------
------------------------------------------
     A#                       Dm  A#  Dm

-10--10--10--10--10--9--10--12--10-
-----------------------------------
-----------------------------------
-----------------------------------
-----------------------------------
-----------------------------------
 Dm

-10--12--13--12--13--12--(12)13--12----------------
-------------------------------------10------------
-----------------------------------------12--10--9-
---------------------------------------------------
---------------------------------------------------
---------------------------------------------------
         F   E    F   E      F   E   A   G   F   E

-10-9----------10-9----------------------------
------11-10-11------11-10-11-------------------
------------------------------10--9------9--10-
-------------------------------------12--------
-----------------------------------------------
-----------------------------------------------
 A#                           Dm

-10-9----------10-9----------10--9--10--12--13-
------11-10-11------11-10-11-------------------
-----------------------------------------------
-----------------------------------------------
-----------------------------------------------
-----------------------------------------------
 A#                          Dm

-18-17-15-17--------------18-17-15-17-------------
-------------18-17-15-17--------------18-17-15-17-
--------------------------------------------------
--------------------------------------------------
--------------------------------------------------
--------------------------------------------------
 A#          Dm           A#          Dm

-------------------------15----15-18-17-
----15-17-15-17-18-17-18----18----------
-18-------------------------------------
----------------------------------------
----------------------------------------
----------------------------------------
 F                          F  A  A#  Dm

-10-9----------10-9----------------------------
------11-10-11------11-10-11-------------------
------------------------------10--9------9--10-
-------------------------------------12--------
-----------------------------------------------
-----------------------------------------------
 A#                           Dm

-10-9----------10-9----------10--9--10--12--13-
------11-10-11------11-10-11-------------------
-----------------------------------------------
-----------------------------------------------
-----------------------------------------------
-----------------------------------------------
 A#                          Dm

-18-17-15-17--------------18-17-15-17-------------
-------------18-17-15-17--------------18-17-15-17-
--------------------------------------------------
--------------------------------------------------
--------------------------------------------------
--------------------------------------------------
 A#          Dm           A#          Dm

-------------------------15----15-18-17-
----15-17-15-17-18-17-18----18----------
-18-------------------------------------
----------------------------------------
----------------------------------------
----------------------------------------
 F                          F  A  A#  Dm


LALALALALALA
--------------------------------
-15-15-15-15-15-15-15-15-13--11-
-15-15-15-15-15-15-15-15-14--12-  (guitare)
--------------------------------
--------------------------------
--------------------------------

LALALALALALA
------------------------------
-10-10-10-10-10-10-10-10-8--6-
-10-10-10-10-10-10-10-10-9--7-  (guitare)
------------------------------
------------------------------
------------------------------

LALALALALALA
--------------------------------
-15-15-15-15-15-15-15-15-13--11-
-15-15-15-15-15-15-15-15-14--12-  (guitare)
--------------------------------
--------------------------------
--------------------------------

RIFF A^A A^A
             VIVA DURRUTI !!

LAALALALALA
--------------------
-----------------10-
------9--10--12-----
--12----------------
--------------------
--------------------
  Dm

LALALALALALALA
---------10--9--10---------
-10--11-------------11--10-
---------------------------
---------------------------
---------------------------
---------------------------
     A#                 Dm

LALALAAALALALALALALA
---------10--9--10-----------------
-10--11-------------11--10---------
----------------------------10-----
--------------------------------12-
-----------------------------------
-----------------------------------
     A#                 Dm

LALALALALALALAAAAA
--------------------------------------------
--------------------------10----------------
-----9--10--9--10--9--10------12--10--9-----
-12--------------------------------------12-
--------------------------------------------
--------------------------------------------
        F   E  F   E  F   A   G    F  E  Dm

LAAALALALALA
--------------------
-----------------10-
------9--10--12-----
--12----------------
--------------------
--------------------
  Dm

LALAAALALALALALAAA
---------10--9--10---------
-10--11-------------11--10-
---------------------------
---------------------------
---------------------------
---------------------------
     A#                 Dm

LALALALALALALALALAAA
---------10--9--10-----------------
-10--11-------------11--10---------
----------------------------10-----
--------------------------------12-
-----------------------------------
-----------------------------------
     A#                 Dm

LALALALALALALAAAAA
--------------------------------------------------------------------------
--------------------------10-------------10-------------10----------------
-----9--10--9--10--9--10------12--10--9------12--10--9------12--10--9-----
-12--------------------------------------------------------------------12-
--------------------------------------------------------------------------
--------------------------------------------------------------------------
        F   E  F   E  F   A   G   F   E  A   G   F   E  A   G   F   E  Dm


BUENO AKA ENVIADA CN PUNTEO Y NOTAS... ESPER KE LES GUSTE AJAJ
BUENO... PARA SABER SU RITMITO AI KE ESCUXARLA...
RESISTE SKA-P!!!
SALUD Y LIBERTAD!
*//JÜÂN~8Ä//* *//CHÎLË//*
alguna keja correccion o algo... enviar un mail a skmelee_05@
Suggest correction
Give kudos to tab author, rate the tab!
1 2 3 4 5
comments
print report bad tab
guest
You may want to rate the tab now too:
select rating
Wanna post a correction for this tab? Suggest correction