Oops, an error
Loading. Please wait.

Que Puedo Decir Bass

by Ska-P
178 views 1 this week
no commentswrite comment
1 2 3 4 5
3 more votes to show rating
add to favorites
launch autoscroll
font size
0
reset
guitar tuner
×
Best way to learn
"Que Puedo Decir"
Autoscroll
slow
fast
+/-
esc
set tempo
stop
ESTE ES MI PRIMER TAB DE SKA ESPERO QUE ME HAYA SALIDO BIEN.
CUALQUIER ARREGLO BIENVENIDO SEA!

HAY QUE ESCUCHAR BIEN LA CANCION PARA COORDINAR LOS TIEMPOS, SUERTE...

INTRO
G|------------------|
D|------------------|
A|---5-8-5---7-10-7-|
E|-6-------8--------|x3

G|-------------------|
D|-------------------|
A|---5-8-5(x3)-------|
E|-6-----------8(x8)-|

ESTROFA
G|-------------------------------------------------------|
D|-------------------------------------------------------|
A|---5-6-8---5-6-8---7-8-10---7-8-10---5-6-8---3-6-------|
E|-6-------6-------8--------8--------6-------4-----3(x8)-|x2

PRECORO
G|-------------|
D|-------------|
A|-1(x3)-3(x3)-|
E|-------------|x4

CORO
G|---------------------------------------------------|
D|---------------------------------------------------|
A|-3(x12)-1(x12)-3(x8)-3/15(x4)-1(x12)---------------|
E|-------------------------------------4(x12)-3(x12)-|

PARTE LENTA
(% --> dejar sonando)
G|----------------------------------------------------------------|
D|------------------------------------12-13-15----10-12-13--------|
A|-13%-13-13-13-14-15%-15-15-15-14-13----------11----------10(x3)-|
E|----------------------------------------------------------------|
(/ --> slide)
G|--------------------------------------------|
D|--------------------------------------------|
A|-10/13%-10/13%-13/15%-13/15%-13%-11%-10(x8)-|
E|--------------------------------------------|

SOLO
G|-------------------------------------------------------------------|
D|----------10-9-7------------5-4-2----------------------------------|
A|---7-8-10--------10---2-3-5-------5---4-6-4---4-6-4---2-5-2--------|
E|-8------------------3---------------6-------6-------3-------3(x10)-|

ORDEN:
- INTRO
- ESTROFA
- PRECORO
- INTRO
- ESTROFA
- PRECORO
- CORO
- PARTE LENTA
- SOLO
- PRECORO
- CORO
Suggest correction
Give kudos to tab author, rate the tab!
1 2 3 4 5
comments
print report bad tab
guest
You may want to rate the tab now too:
select rating
Wanna post a correction for this tab? Suggest correction