Oops, an error
Loading. Please wait.

Que Puedo Decir Chords

version 2
version 2

Whole song

by Ska-P
152 views 3 this week
no commentswrite comment
1 2 3 4 5
3 more votes to show rating
add to favorites
launch autoscroll
font size
0
reset
transpose
0
reset
display chords
guitar tuner
×
Best way to learn
"Que Puedo Decir"
Autoscroll
slow
fast
+/-
esc
set tempo
stop
E|-------------------------------------------------|
B|-------------------------------------------------|
G|--5-3-5-6-------6-5------------------------------|
D|----------3-5-3----------------------------------|
A|----------------------4-3-0-1--4-3-4---0---------|
E|------------------------------1------1-----------|

E|----------------------3-------------8-|
B|---4-6/4----------4-4--4------------8-|
G|----------5/4----5-------5----------8-|
D|--5-----------5-----------5-4-5-4-----|
A|--------------------------------------|
E|--------------------------------------|

E|10-8-10-13-10-11/10/11/10---10--3-4/3/4/3--3-|
B|--------------------------13--------------4--|
G|---------------------------------------------|
D|---------------------------------------------|
A|---------------------------------------------|
E|---------------------------------------------|
Suggest correction
Give kudos to tab author, rate the tab!
1 2 3 4 5
comments
print report bad tab
guest
You may want to rate the tab now too:
select rating
Wanna post a correction for this tab? Suggest correction