Oops, an error
Loading. Please wait.

Reality Show Tab

version 1
version 1

Whole song

25 views 1 this week
no commentswrite comment
1 2 3 4 5
3 more votes to show rating
add to favorites
launch autoscroll
font size
0
reset
how to read this tab
guitar tuner
×
Best way to learn
"Reality Show"
Autoscroll
slow
fast
+/-
esc
set tempo
stop
Reality Show - Ska-p

Intro y Riff: (Escucha Bien El Tiempo)

E-2-5-4-2-2-5-5-0-0-2--2-5-4-2-2-5-5-0-I <---- (6ta. Cuerda)


Solo yo en el sillón, sentado frente al televisor
No se que hacer, qué puedo ver, algún misterio sin resolver
Una mujer se suicidó, tenía problemas con el alcohol
Se tiró por el balcón y se cargó a un pobre peatón

Aca Podes Hacer Un Riff Con: F#5-A5-E5

Apaga el televisor, reality show
Televisión horror, reality show
El show del terror, reality show
Televisión dolor, reality show

Corte De Teclado: Seria Algo Así:

e--------------------------------------------------------------I
b--------------------------------------------------------------I
g--------------------------------------------------------------I
d--------------------------------------------------------------I
a-----------1-2----------------------2-1-----------------------I
E-2-5-4-2-5-----2-2-2-0-2--2-5-4-2-5-----2-0-2-----------------I


E-2-5-4-2-2-5-5-0-0-2--2-5-4-2-2-5-5-0-I <---- (6ta. Cuerda)

Cambio de canal con la intención de ver algú programa cultural
Sin explotar la intimidad, ni el horror que sufren los demás
Antes de ayer, al parecer, hubo otro intento de violación
Quedó con él, disimuló y de un mordisco se la arrancó

Aca Podes Hacer Un Riff Con: F#5-A5-E5

Apaga el televisor...

Corte SKA Sobre: F#m

Melodía: 6ta. 5ta. 4ta Cuerda.

d----------------------------------I
a-------4-2-------------4-2--------I
E-2-4-5-----5-4-0-2-4-5------------I

Quieres morbo, toma morbo, tiene morbo...

Corte De Teclado: Seria Algo Así:

e--------------------------------------------------------------I
b--------------------------------------------------------------I
g--------------------------------------------------------------I
d--------------------------------------------------------------I
a-----------1-2----------------------2-1-----------------------I
E-2-5-4-2-5-----2-2-2-0-2--2-5-4-2-5-----2-0-2-----------------I


Aca Podes Hacer Un Riff Con: F#5-A5-E5

Vuelvo a cambiar, no aguanto más,
en este hay toros, me voy a colgar
No os retireis, aún hay más, despues de la publicidad
Apareció un espectador colgado frente a su televisor
Dejo una nota en la que escribió: "estyastal"
culo del reality show

Aca Podes Hacer Un Riff Con: F#5-A5-E5

Apaga el televisor...

Corte SKA Sobre: F#m

Melodía: 6ta. 5ta. 4ta Cuerda.

d----------------------------------I
a-------4-2-------------4-2--------I
E-2-4-5-----5-4-0-2-4-5------------I

Quieres morbo, toma morbo, tiene morbo...

Corte De Teclado: Seria Algo Así:

e--------------------------------------------------------------I
b--------------------------------------------------------------I
g--------------------------------------------------------------I
d--------------------------------------------------------------I
a-----------1-2----------------------2-1-----------------------I
E-2-5-4-2-5-----2-2-2-0-2--2-5-4-2-5-----2-0-2-----------------I

LISTOOOO!!!! =) =) REALITY SHOW AQUI PARA UDS!.

ES FACIL! SON.. 3 RIFF Y F#M UDS. PUEDEN

DISCULPENME CHICOS PERO EL CORTE DE TECLADO
NO ESTA DEL TODO BIEM! PERO SUENA LENDO!

HASTA LA VICTORIA SIEMPRE MIS COLEGAS

VIVA SKA-P

ger_sager@
Suggest correction
Give kudos to tab author, rate the tab!
1 2 3 4 5
comments
print report bad tab
guest
You may want to rate the tab now too:
select rating
Wanna post a correction for this tab? Suggest correction