Oops, an error
Loading. Please wait.

Reality Show Tab

version 2
version 2

Whole song

by Ska-P
58 views 1 this week
no commentswrite comment
1 2 3 4 5
3 more votes to show rating
add to favorites
launch autoscroll
font size
0
reset
how to read this tab
guitar tuner
×
Best way to learn
"Reality Show"
Autoscroll
slow
fast
+/-
esc
set tempo
stop
Intro/Fill:
         F#m  A    E     F#m           A    E
e|---------------------------------------------|
B|---------------------------------------------|
G|---------------------------------------------|
D|---------------------------------------------|
A|---------------------------------------------|
E|-2-5-4-2--2-5--5-0--0--2--2-5-4-2--2-5--5-0--|
PM * * * *  * *  * *  *  *  * * * *  * *  * *

Verso:
F#m   A     E    F#m                       A   E
 Solo yo en el sillón, sentado frente al televisor
F#m          A        E     F#m                     A    E
 No se que hacer, qué puedo ver, algún misterio sin resolver
F#m    A      E F#m                        A    E
 Una mujer se suicidó, tenía problemas con el alcohol
F#m   A      E     F#m                       A  E
 Se tiró por el balcón y se cargó a un pobre peatón

Coro:
               F#m          A    E
Apaga el televisor, reality show
             F#m           A    E
Televisión terror, reality show
              F#m           A    E
El show del horror, reality show
             F#m          A    E
Televisión dolor, reality show

Sax:
         F#m    A      E     F#m              A     E
e|-----------------------------|-----------------------|
B|-----------------------------|-----------------------|
G|-----------------------------|-----------------------|
D|-----------------------------|-----------------------|
A|----------0-2-4-2-0----------|----------0-2-4-2-0----|
E|-2-5-4-2-------------0--1--2-|-2-5-4-2------------0--|

Verso:
F#m          A       E       F#m                        A    E
 Cambio de canal con la intención de ver algún programa cultural
F#m       A        E   F#m                          A     E
 Sin explotar la intimidad, ni el dolor que sienten los demás
F#m        A       E   F#m                       A    E
 Antes de ayer, al parecer, hubo otro intento de violación
F#m        A     E   F#m                    A       E
 Quedó con él, disimuló y de un mordisco se la arrancó

Coro:
               F#m          A    E
Apaga el televisor, reality show
             F#m           A    E
Televisión terror, reality show
              F#m           A    E
El show del horror, reality show
             F#m          A    E
Televisión dolor, reality show

Sax/Puente:
   F#m   A     E             F#m     A     E
e|-------------------------|-----------------|
B|-------------------------|-----------------|
G|-------------------------|-----------------|
D|-------------------------|-----------------|
A|----------4-2------------|------------4-2--|
E|-2--4--5-------5-5--4--0-|-2-2--4--5-------|

   F#m   A     E             F#m     A     E
e|-------------------------|-----------------|
B|-------------------------|-----------------|
G|----------6-4------------|------------6-4--|
D|-4--6--7-------7-7--6--2-|-4-4--6--7-------|
A|-------------------------|-----------------|
E|-------------------------|-----------------|

Puente:
F#m            A           E
 Quieres morbo, toma morbo, tiene mo, tiene mo, tiene morbo
F#m            A           E
 Quieres morbo, toma morbo, mo
F#m            A           E
 Quieres morbo, toma morbo, tiene mo, tiene mo, tiene morbo
F#m            A           E
 Quieres morbo, toma morbo

         F#m    A      E     F#m              A     E
e|-----------------------------|-----------------------|
B|-----------------------------|-----------------------|
G|-----------------------------|-----------------------|
D|-----------------------------|-----------------------|
A|----------0-2-4-2-0----------|----------0-2-4-2-0----|
E|-2-5-4-2-------------0--1--2-|-2-5-4-2------------0--|

Verso:
F#m          A         E      F#m                           A    E
 Vuelvo a cambiar, no aguanto más,en este hay toros, me voy a colgar
F#m        A      E      F#m                  A    E
 No os retireis, aún hay más, despues de la publicidad
F#m   A        E    F#m                       A   E
 Apareció un espectador colgado frente a su televisor
F#m       A          E       F#m                           A    E
 Dejo una nota en la que escribió: estoy hasta culo del reality show

Coro:
               F#m          A    E
Apaga el televisor, reality show
             F#m           A    E
Televisión terror, reality show
              F#m           A    E
El show del horror, reality show
             F#m          A    E
Televisión dolor, reality show

Sax/puente:
   F#m   A     E             F#m     A     E
e|-------------------------|-----------------|
B|-------------------------|-----------------|
G|-------------------------|-----------------|
D|-------------------------|-----------------|
A|----------4-2------------|------------4-2--|
E|-2--4--5-------5-5--4--0-|-2-2--4--5-------|

   F#m   A     E             F#m     A     E
e|-------------------------|-----------------|
B|-------------------------|-----------------|
G|----------6-4------------|------------6-4--|
D|-4--6--7-------7-7--6--2-|-4-4--6--7-------|
A|-------------------------|-----------------|
E|-------------------------|-----------------|

Puente:
F#m            A           E
 Quieres morbo, toma morbo, tiene mo, tiene mo, tiene morbo
F#m            A           E
 Quieres morbo, toma morbo, mo
F#m            A           E
 Quieres morbo, toma morbo, tiene mo, tiene mo, tiene morbo
F#m            A           E
 Quieres morbo, toma morbo

F#m            A           E
 Quieres morbo, toma morbo, tiene mo, tiene mo, tiene morbo
F#m            A           E
 Quieres morbo, toma morbo, mo
F#m            A           E
 Quieres morbo, toma morbo, tiene mo, tiene mo, tiene morbo
F#m            A           E
 Quieres morbo, toma morbo

Sax (final):
         F#m    A      E     F#m              A     E
e|-----------------------------|------------------------|
B|-----------------------------|------------------------|
G|-----------------------------|------------------------|
D|-----------------------------|------------------------|
A|----------0-2-4-2-0----------|----------0-2-4-2-0-----|
E|-2-5-4-2-------------0--1--2-|-2-5-4-2------------0-2-|
                                                      Ahh!!


Les dejo mi MSN para lo que quieran:
jaime_dick_shaped_box@
Suggest correction
Give kudos to tab author, rate the tab!
1 2 3 4 5
comments
print report bad tab
guest
You may want to rate the tab now too:
select rating
Wanna post a correction for this tab? Suggest correction