Oops, an error
Loading. Please wait.

Torero Bass Tab

82 views 1 this week
no commentswrite comment
1 2 3 4 5
3 more votes to show rating
add to favorites
launch autoscroll
font size
0
reset
guitar tuner
Autoscroll
slow
fast
+/-
esc
set tempo
stop
Help us to improve Ultimate-Guitar.com Take our survey!
×
No estoy seguro de todo, pero es mi primera tab
 Asi k igual vale??..          ¡¡¡¡¡es lo k hay no mas!!!!!!

Intro:                                                                                             
                                        tablatura dedicada al yogurt, a la
D|----------------------------------|	leche con chocolate, al nectar
G|----------------------------------|            y toda clase de jugos natutales
A|----------------------------------| x 2	ricos y sin alcohol?
E|--22-233-32----------22-233-32----|

Parte 1
D|-----------------------------------------------|
G|-----------------------------------------------|
A|-----------------------------------------------|xxx = Muchas
E|---777xxx?777--------555xxx-333xxx-------------|      veces


D|-----------------------------------------------|
G|-----------------------------------------------|
A|-----------------------------------------------|
E|---777xxx?777--------555xxx-222xxx-------------| x2

Estrofa 1
D|-----------------------------------------7--5--4----------3--6--3--|
G|--------------------------------------5----------------4-----------|
A|-----------9-?7--6----------7--5--4--------------------------------|
E|--------7----------------5-----------------------------------------|
Entre el atlántico y el mar mediterráneo hay una tierra de mar y mucho sol?


D|-------------------------------------------------------------------|
G|-------------------------------------------------------------------|
A|-----------9-?7--6----------7--5--4--------------------------------|
E|--------7----------------5------------------3---------------2-2----|
  K desde antaño se viene praccicando una askerosa y sucia tradición


Todo el resto de la estrofa es igual, la cancion sigue asi:

Un individuo vestido de payaso tortura y martiriza hasta la muerte a un animal
El graderio estalla de locura cuando el acero anuncia su final

Parte 1

Banderilleros sedientos de violencia van torturando sin ninguna compasión
los picadores prosigen la matanza acentuando pisadas de dolor
malherido embiste con bravura contra el frio del hacero que desrtoza su interior
agonizando en un charco de sangre el puntillero remata la funcion


Pre coro
D|-------------------------------------------------------------|
G|-------------------------------------------------------------|
A|-------------------------------------------------------------|
E|-22-233-32------22-233-32-------- 22-233-32---------22-233-32|
                    festejo!!!                criminal!!!                 verguenza!!!

Coro:
D|----------------------------------------------------------|
G|----------------------------------------------------------|
A|----------------------------------------------------------|
E|-777xxx?5555xxx---333xxx-------------222xxx---------------|
    Toeeeeeeero                eres la vergüenza de una nacion   (el bajo sige igual)
    Toeeeeeeero                eres la violencia en television
    Toeeeeeeero                eres asesino por vocacion
    Toeeeeeeero                me produce asco tu profesion

En el punteo el bajo acompaña con los mismos acordes B-A-G-F#

Estrofa 2 (igual k la uno)

Llamar cultura al sadismo organizado a la violencia ala muerte y al dolor
Es un insulto a la propia inteligencia al desarrollo de nuestra evolucion
Tu indiferencia les hace poderosos manifiesta tu repulsa a la festa criminal
No colabores con un juego de dementes  ¡¡¡taurinos al codigo penal!!!!

Hora viene el pre coro y el coro de nuevo,   después otro punteito de la guitarra y el bajo 
hace lo mismo k en el otro punteo(B-A-G-F#).

Después se impovisa un poco con los mismos acordes y termina en B.

Eso es todo!!!!!!!!!!!!!!!!!!!!!!!

Espero k las proximas sean mejores?  Viva es Ska!!!!!!!!!!!!!

Un saludo pa?l  boby  , el alavarito, el nico, el chepo, el niño, el fabian y todo mi curso en general?
       Viva el 3°B!!! 2004          El mejor de todos los tiempos?
Suggest correction
Give kudos to tab author, rate the tab!
1 2 3 4 5
comments
print report bad tab
guest
You may want to rate the tab now too:
select rating
Wanna post a correction for this tab? Suggest correction