Oops, an error
Loading. Please wait.

Torero Tab

58 views 6 this week
no commentswrite comment
1 2 3 4 5
3 more votes to show rating
add to favorites
launch autoscroll
font size
0
reset
how to read this tab
guitar tuner
×
Best way to learn
"Torero"
Autoscroll
slow
fast
+/-
esc
set tempo
stop
Intro: F#-G-F#    x4
       Bm-A-G-F#  x4

Verso:

e|-----2--------5--------3--------2--------|| va con ritmo ska
B|-----3--------5--------3--------2--------|| asi que las cuerdas que se
G|-----4--------6--------4--------3--------||tocan son las primeras 4
D|-----4--------7--------5--------4--------||
A|-----2--------7--------5--------4--------||
E|--------------5--------3--------2--------||


Bm                                  A
Y entre el atlantico y el mar mediterraneo
 G                           F#
hay una tierra de mar y mucho solo
Bm                               A
que desde antaño se viene practicando
 G                          F#
una asquerosa y sucia tradicion
Un individuo vestido de payaso
tortura y martiriza hasta la muerte un animal
El graderia esalla de locura
cuendo el acero anuncia su final
Bm-A-G     Bm-A-F#
Banderilleros sedientos de violencia
van torturando sin ninguna compacion
los picadores prosiguen la matanza
acentuendo punzzadas de dlor
Mal herdo envistre con brabura
contra el frio del acero que destroza sun interior
agonizando en un charco de sangre
el puntillero remaata la funcion

estribillo:
 F#-G-F#       F#-G-F#           F#-G-F#
 Festejo!      Criminal!         Verguenza!
Bm          A G                      F#
Toreroooooooo eres la verguenza de una nacion
Bm          A  G                         F#
toreroooooooo eres la violencia en televicion
Bm          A  G                   F#
toreroooooooo eres asesino por vocacion
Bm          A  G                       F#
toreroooooooo me produce asco tu profesion

Bm-G-F# x2
Bm-A-G
Bm-A-F#

Llaman cultura al sadismo organizado
a la violencia la muerte o el dolor
es un insulto a la propia inteligencia
al desarrollo de nuestra evolucion
tu indiferencia les hace poderosos
manifiesta tu repulsa a la fiesta criminal
no colabores con un juego de dementes
taurinos al codigo penal

estribillo

Cm-G-F# x6

e|----------------------------------10-9-9-9-9-8-8-8-8--------------------
B|12---10--------------10----10/12---------------------------8-7--------7-
G|---10--12-11-9-11-12---11-------11-----------------------------7-6-7-9--
D|-----------------------------------------------------9-7----------------
A|------------------------------------------------------9-10--------------
E|------------------------------------------------------------------------

e|-------------------||
B|-------------------||
G|-------------------||
D|-9-----6/7--9-9-11-||
A|--9----------------||
E|-------------------||

F#-G-F#
Festejo!!
F#-G-F#
Criminal
F#-G-F#
Verguenzaaaaaaaaaaaaaaaaaaaaaaaa!!!!

F# G F# G F# G F# G F# G Bm
Suggest correction
Give kudos to tab author, rate the tab!
1 2 3 4 5
comments
print report bad tab
guest
You may want to rate the tab now too:
select rating
Wanna post a correction for this tab? Suggest correction