Oops, an error
Loading. Please wait.

Victoria Tab

by Ska-P
101 views 3 this week
no commentswrite comment
1 2 3 4 5
3 more votes to show rating
add to favorites
launch autoscroll
font size
0
reset
how to read this tab
guitar tuner
×
Best way to learn
"Victoria"
Autoscroll
slow
fast
+/-
esc
set tempo
stop
HOLA A TODXS!! :)
LES DEJO ESTE TEMA DEL NUEVO DISCO, ESPERO QUE LO DISFRUTEN CREO QUE ESTÁN
BIEN LOS TONOS CUALQUIER DUDA O CORRECCIÓN AVISEN A joniol93@
NOS VEMOS EL 23 DE MARZO EN FERRO :)

D            A                 Bm
En la oscuridad de mi frustración
               G                              D
cuando la esperanza está en peligro de extinción
             A              Bm
un brote de luz en la multitud
                 G
me devuelve las ganas de gritar

    D5                      A5              |
Victoria, he sentido la victoria            |
B5                G5                        |
 se aproxima un nuevo despertar             |
                  D5                        | 1
el hastío erupcionó al volcán               |
                        A5                  |
en las calles de cualquier gran ciudad      |
B5                          G5              |
  desde el sol emanan libertad              |

D                A                              |
  Qué agradable sensación caminar al mismo son  |
           Bm                      G            |
rodeado de almas exigiendo dignidad             | 2
D              A                Bm              |
  somos el detonador esperando la explosión     |
                G                               |
que derribe la puerta y entre el son            |

Victoria, he sentido la victoria        |
se aproxima un nuevo despertar          |
el hastío erupcionó al volcán           |IGUAL A 1
en las calles de cualquier gran ciudad  |
desde el sol emanan libertad            |

En época de recesión está al acecho el tiburón                  |
se alimenta de miedo, paro y desesperación                      |
LA SOBERANÍA, que dulce sueño                                   |IGUAL A 2
LA DEMOCRACIA, es solo un juego                                 |
que persevera los privilegios de los políticos y los banqueros  |

G5 G5

B5     D5                  A5      G5
Despertad: Víctimas de su especulación
B5     D5                        A5        G5
Despertad: Que el miedo no te impida reacción
B5     D5                             A5       G5
Despertad: Contra el hambre nos ofrecen represión
B5     D5                         A5   G5
Despertad: Ya no nos queda más, a la revolución


SOLO:

e|-------------------------------------------------------------------
B|--------10----10---------------10----------------------------------
G|-11~--12--9-----12-11h12p11-9~----12-11h12p11-------11h12p11-------
D|----------------------------------------------11-12----------11-12-
A|-------------------------------------------------------------------
E|-------------------------------------------------------------------

e|-10-9------------------10-9------------------10-9------------------
B|------12-10-----------------12-10-----------------12-10------------
G|------------12-11-9---------------12-11-9---------------12-11-9----
D|--------------------12--------------------12--------------------12-
A|-------------------------------------------------------------------
E|-------------------------------------------------------------------

e|-------------------------------------------------------------------
B|-------------------------------------------------------------------
G|-10^-10^--10^-10^-10^--9h11p9--------------------------------------
D|------------------------------12~----------------------------------
A|-------------------------------------------------------------------
E|-------------------------------------------------------------------

D                  A                    Bm
Nos quieren convencer, infectan la opinión
                  G
que todo fue un sueño de un pueblo soñador
D5             A5                B5        |PALM MUTE
hay que reactivar toda la ilusión          |
                              G5           |HASTA EL G5
avivar las llamas de la rebelión           |


Victoria, he sentido la victoria           |
se aproxima un nuevo despertar             |
el hastío erupcionó al volcán              |IGUAL A 1
en las calles de cualquier gran ciudad     |
desde el sol emanan libertad               |

D5        C5        B5
Victoria, victoria, victoria,
A5            G5
Levántate y grita.
D5        C5        B5
Victoria, victoria, victoria
A5            G5     D5
Levántate y grítalo ya.
Suggest correction
Give kudos to tab author, rate the tab!
1 2 3 4 5
comments
print report bad tab
guest
You may want to rate the tab now too:
select rating
Wanna post a correction for this tab? Suggest correction