Oops, an error
Loading. Please wait.

Welcome To Hell tab

version 2
version 2

Whole song

Interactive

by Ska-P
4,559 views 3 this week
no commentswrite comment
1 2 3 4 5
3 more votes to show rating
add to favorites
×
Save as Personal and add changes to this tab that will be seen only by you. Learn more ›
×
You can save this tab as Personal to edit and correct it or add notes. All changes will be seen only by you. Learn more »
launch autoscroll
font size
0
reset
how to read this tab
guitar tuner
edit
Autoscroll
slow
fast
+/-
esc
set tempo
stop
Author
Ska-P – Welcome To Hell

Intro Pt.1

#Guitar1#      x2
e|----------------------------------|
B|----------------------------------|
G|----------------------------------|
D|----------------------------------|
A|--0-0-3-5-0-0-3-5-0-0-3-5-6-0-5-3-|
E|----------------------------------|
:
Intro Pt.2

#Guitar1#
e|---------------------------------------------------------------------|
B|---------------------------------------------------------------------|
G|----------------------------------------------------------------5----|
D|----------------------------------------------------------------5-5--|
A|----------------------------------------------------------------3-5--|
E|------------------------------------------------------------------3--|

#Guitar2#
e|-5-5-5-5-5-5-5-5-5-5-5-5-5-3-3-3—-5-5-5-5-5-5-5-5-5-5-5-5-5--3--8-3--|
B|-5-5-5-5-5-5-5-5-5-5-5-5-5-3-3-3--5-5-5-5-5-5-5-5-5-5-5-5-5--3--8-3--|
G|-5-5-5-5-5-5-5-5-5-5-5-5-5-3-3-3--5-5-5-5-5-5-5-5-5-5-5-5-5--3--8-3--|
D|---------------------------------------------------------------10-5--|
A|---------------------------------------------------------------10-5--|
E|----------------------------------------------------------------8-3--|
:
Intro Pt.3

#Guitar1#
e|----------------------------------------------------------------8-3-|
B|----------------------------------------------------------------8-3-|
G|----------------------------------------------------------------8-3-|
D|---------------------------------------------------------------10-5-|
A|--7-7---7—-6-6---6--5-5---5---------7-7---7--6-6---6--5-5---5--10-5-|
E|------5--------5--------5----8-8-3------5--------5--------5-----8-3-|

#Guitar2#
e|-5-5-5-5-6-6-6-6-5-5-5-5-3-3-3-3-|
B|-5-5-5-5-7-7-7-7-5-5-5-5-3-3-3-3-|
G|-5-5-5-5-8-8-8-8-5-5-5-5-3-3-3-3-|
D|---------------------------------|
A|---------------------------------|
E|---------------------------------|
:
Verse Pt.1

#Guitar2#      x2
e|-5-5-5-5-6-6-6-6-5-5-5-5-3-3-3-3-5-5-5-5-6-6-6-6—-8-|
B|-5-5-5-5-7-7-7-7-5-5-5-5-3-3-3-3-5-5-5-5-7-7-7-7—-8-|
G|-5-5-5-5-8-8-8-8-5-5-5-5-3-3-3-3-5-5-5-5-8-8-8-8—-9-|
D|----------------------------------------------------|
A|----------------------------------------------------|
E|----------------------------------------------------|

Verse Pt.2

#Guitar1# & #Guitar2#
e|---------------------------|---------|
B|---------------------------|---------|
G|--8-7-5-2----8-7-5-2-2--5--|--8-7-5--|
D|--8-7-5-2----8-7-5-2-2--5--|--8-7-5--|
A|--6-5-3-0----6-5-3-0-0--3--|--6-5-3--|
E|-------------------x-x-----|---------|
:
Then play intro pt.2, verse pt.1, verse pt.2









Pre-Chorus

#Guitar1# & #Guitar2#
e|--------------------------------|
B|--------------------------------|
G|--2-2-----------2-2----------7--|
D|--2-2----5-5----2-2----5-5---7--|
A|--0-0----5-5----0-0----5-5---5--|
E|---------3-3-----------3-3------|
:
Chorus  

#Guitar1# & #Guitar2#      x4
e|--------------------|
B|--------------------|
G|--2----5---------7--|
D|--2----5----5----7--|
A|--0----3----5----5--|
E|------------3-------|
:
Post-Chorus

#Guitar1#    x4
e|----------------------------------|
B|----------------------------------|
G|----------------------------------|
D|-----------------------------10-5-|
A|--7-7---7—-6-6---6--5-5---5--10-5-|
E|------5--------5--------5-----8-3-|

#Guitar2#    x2
e|-5-5-5-5-6-6-6-6-5-5-5-5-3-3-3-3-|
B|-5-5-5-5-7-7-7-7-5-5-5-5-3-3-3-3-|
G|-5-5-5-5-8-8-8-8-5-5-5-5-3-3-3-3-|
D|---------------------------------|
A|---------------------------------|
E|---------------------------------|
:
Intro Pt.2

#Guitar1#
e|---------------------------------------------------------------------|
B|---------------------------------------------------------------------|
G|----------------------------------------------------------------8-8--|
D|----------------------------------------------------------------8-8--|
A|----------------------------------------------------------------6-6--|
E|---------------------------------------------------------------------|
        
#Guitar2#
e|-5-5-5-5-5-5-5-5-5-5-5-5-5-3-3-3—-5-5-5-5-5-5-5-5-5-5-5-5-5--3-------|
B|-5-5-5-5-5-5-5-5-5-5-5-5-5-3-3-3--5-5-5-5-5-5-5-5-5-5-5-5-5--3--8-8--|
G|-5-5-5-5-5-5-5-5-5-5-5-5-5-3-3-3--5-5-5-5-5-5-5-5-5-5-5-5-5--3--8-8--|
D|----------------------------------------------------------------8-8--|
A|----------------------------------------------------------------6-6--|
E|---------------------------------------------------------------------|
:
then play verse pt.1
:
Bridge

#Guitar1#                   
e|-0~-------------------17----17-------17----17----17----17------17----17--à
B|-2~----0-----------------17----17-------17----------17----17------17-----à
G|-2~------2----------------------|----------------------------------------à
D|-2~--------2--------------------(guitar2 starts here)--------------------à
A|-0~----------------------------------------------------------------------à
E|-------------------------------------------------------------------------à

e|---------------------------------------------------------------------------------|
B|---------------------------------------------------------------------------------|
G|---------------------------------------------------------------------------------|
D|---7-7-7-7-5-5-7-------5-7-7-7-10-10-7-----5-7-7-7-5-5-7---------5-7-7-7-10-10-7-|
A|---------------------7-----------------------------------------7-----------------|
E|---------------------------------------------------------------------------------|
  Pm………………………………………………………………………………………………………………………………………………………………………………………………………………



#Guitar2#    x4  (slow)
e|-5-5-5-5-6-6-6-6-|
B|-5-5-5-5-7-7-7-7-|
G|-5-5-5-5-8-8-8-8-|
D|-----------------|
A|-----------------|
E|-----------------|
:
then play verse pt.2, pre-chorus, chorus and post-chorus

Las horas son eternas en el sucio corredor
Pensando con detalle en mi ejecución
El tiempo se me acaba y no lo puedo detener
Ey!! brother, welcome to hell..
Atado en una silla me van a electrocutar
He sido condenado a la pena capital
Alego mi inocenciay no lo quieren ver
Ey!! brother, welcome to hell..

Ya llego la hora, hermano chicano
Ya llego tu hora afro-americano

Condenan a dementes o a menores de edad
En la silla de la muerte o en la camara de gas
A cuantos inocentes he visto perecer
Ey!!brother, welcome to hell
Vivo en un pais donde todo puedes comprar
Estar vivo o estar muerto depende del capital
Mi futiro ya esta escrito no me puedo defender
Ey!! brother, welcome to hell

Ya llego la hora, hermano chicano
Ya llego tu hora afro-americano

VIGENTES CRIMENES DE ESTADO CONTRA LA HUMANIDAD
EXISTEN DERECHOS HUMANOS A ELLOS LES DA IGUAL

WELCOME to HELL, ESTE CASO ESTA CERRADO
WELCOME to HELL, HAY QUE ASESINARLO
WELCOME to HELL, ESTE CASO ESTA CERRADO
WELCOME to HELL, HAY QUE ELIMINARLO
[X2] 
WELCOME
WELCOME DEATH
[X2]

Cuantos seres humanos tendreis que asesinar
Para daros cuenta que esto es une atrocidad
El ojo por ojo nada puede resolver
EY!! brother, welcome to hell
Al cabo de los años consiguieron demostran
Que yo no era culpable y ya no hay marcha atras
Mi cuerpo esta podrido y ya no puedo renacer
Eh brother, welcome, welcome...

Ya llego la hora, hermano chicano
Ya llego tu hora afro-americano
[X3]

VIGENTES CRIMENES DE ESTADO CONTRE LA HUMANIDAD
EXISTEN DERECHOS HUMANOS A ELLOS LES DA IGUAL

WELCOME HELL, ESTE CASO ESTA CERRADO
WELCOME HELL, HAY QUE ASESINARLO
WELCOME HELL, ESTE CASO ESTA CERRADO
WELCOME HELL, HAY QUE ELIMINARLO
[X2]
WELCOME
WELCOME DEATH
[X2]
Suggest correction
Creating personal tab
Creating personal tab
You can edit any tab online and save it as your Personal.

You can edit, replace or remove any tab part or add personal notes – all changes will be seen only by you.

Personal tabs can be accessed anytime from any device, even offline.
Learn more »
Give kudos to tab author, rate the tab!
1 2 3 4 5
comments
print report bad tab
guest
You may want to rate the tab now too:
select rating
Wanna post a correction for this tab? Suggest correction