Oops, an error
Loading. Please wait.

Romance And Glory Tab

87 views 1 this week
no commentswrite comment
1 2 3 4 5
please rate
add to favorites
launch autoscroll
font size
0
reset
how to read this tab
guitar tuner
Autoscroll
slow
fast
+/-
esc
set tempo
stop
Help us to improve Ultimate-Guitar.com Take our survey!
×
Author
Difficulty
novice
Artist: Skaladdin
Song: Romance and Glory
Album: Young, Handsome & We Know It

By Philipp from Heinsberg p.heg@gmx.de


intro
e|---------------------------------------------------------------|
B|---------------------------------------------------------------|
G|----9--7~---5--4~----9~--7---5~--4-4-4-------------------------|
D|----9--7~---5--4~----9~--7---5~--4-4-4-------------------------|
A|----7--5~---3--2~----7~--5---3~--2-2-2-------------------------|
E|---------------------------------------------------------------|

intro part2
e|---------------------------------------------------------------|
B|---------------------------------------------------------------|
G|----9-9-9-9-7-7-7-7-5-5-5-5-4-4-4-4----------------------------|
D|----9-9-9-9-7-7-7-7-5-5-5-5-4-4-4-4------------------2x--------|
A|----7-7-7-7-5-5-5-5-3-3-3-3-2-2-2-2----------------------------|
E|---------------------------------------------------------------|


chorus
e|-------------------------------------------------x-x-x-x-x-x-x-x-x-x-x-x-------------------|
B|-------------------------------------------------x-x-x-x-x-x-x-x-x-x-x-x-------------------|
G|-9-9-9-9-9-9-9-9-9-9-9-9-7-7-7-7-7-7-7-7-7-7-7-7-x-x-x-x-x-x-x-x-x-x-x-x-9~-9-9--7-7-------|
D|-9-9-9-9-9-9-9-9-9-9-9-9-7-7-7-7-7-7-7-7-7-7-7-7-x-x-x-x-x-x-x-x-x-x-x-x-9~-9-9--7-7--7-7--|
A|-7-7-7-7-7-7-7-7-7-7-7-7-5-5-5-5-5-5-5-5-5-5-5-5-x-x-x-x-x-x-x-x-x-x-x-x-7~-7-7--5-5--7-7--|
E|-------------------------------------------------x-x-x-x-x-x-x-x-x-x-x-x--------------5-5--|

verse
e|--------------------3--3-3---5--5-5---------------------------------|
B|--9--9-9---9--9-9---3--3-3---5--5-5---------------------------------|
G|--9--9-9---9--9-9---4--4-4---4--4-4---------------------------------|
D|--9--9-9---9--9-9---5--5-5---7--7-7----------------2x---------------|
A|--7--7-7---7--7-7---5--5-5---7--7-7---------------------------------|
E|--------------------3--3-3---5--5-5---------------------------------|

verse part2
e|---------------------------------------------------------------|
B|----------------------------------first time-------------------|
G|--9-9-9-9-9-9-9-9--------------------(7-7)---------------------|
D|--9-9-9-9-9-9-9-9--5-5-5-5--7-7-7-7--(7-7)-----------2x--------|
A|--7-7-7-7-7-7-7-7--5-5-5-5--7-7-7-7--(5-5)---------------------|
E|-------------------3-3-3-3--5-5-5-5----------------------------|


e|---------------------------------------------------------------|
B|---------------------------------------------------------------|
G|----9--7----5--4-----9---7---5---5-5-5-------------------------|
D|----9--7----5--4-----9---7---5---5-5-5-------------------------|
A|----7--5----3--2-----7---5---3---2-2-2-------------------------|
E|---------------------------------------------------------------|


chorus

verse

verse part 2

chorus (without the last part)

Bridge
e|---------------------------------------------------------------------|
B|--9-9-9-9--11-11-11-11-----------------------------------------------|
G|--9-9-9-9--11-11-11-11--9-9-9-9-11-11-11-11-12-12-12-12-12-12--------|
D|--9-9-9-9--11-11-11-11--9-9-9-9-11-11-11-11-12-12-12-12-12-12----2x--|
A|--7-7-7-7--9--9--9--9---7-7-7-7-9--9--9--9--10-10-10-10-10-10--------|
E|---------------------------------------------------------------------|

verse part2

chorus

intro

intro part2 (4x)

www.skaladdin.ch
Suggest correction
Give kudos to tab author, rate the tab!
1 2 3 4 5
comments
print report bad tab
guest
You may want to rate the tab now too:
select rating
Wanna post a correction for this tab? Suggest correction