Oops, an error
Loading. Please wait.

Jaia Bass

74 views 1 this week
no commentswrite comment
1 2 3 4 5
2 more votes to show rating
add to favorites
×
Save as Personal and add changes to this tab that will be seen only by you. Learn more ›
×
You can save this tab as Personal to edit and correct it or add notes. All changes will be seen only by you. Learn more »
save as personal
new!
launch autoscroll
font size
0
reset
guitar tuner
Autoscroll
slow
fast
+/-
esc
set tempo
stop
Esta cancion es muy facil, pero tocada por una guitarra y un bajo gana muchisimo:

Intro:

---------------
-12--10--8--7--
---------------
---------------

Durante casi toda la cancion hace este riff

(lo he divido en dos xq no cabe en uno):

------------------------------------------------------------------
-----8--12--8--------8--12--8-------7--10--7--------7--10--7------
-10--------------10--------------8---------------8----------------
------------------------------------------------------------------

------------------------------------------------------------------
----5--8--5---------5--8--5----------4--7--4--------4--7--4-------
-6---------------6----------------5--------------5----------------
------------------------------------------------------------------

...Tienes ocho noches para beber y desfasar...

---------------
-12--10--8--7--
---------------
---------------

------------------------------------------------------------------
-----8--12--8--------8--12--8-------7--10--7--------7--10--7------
-10--------------10--------------8---------------8----------------
------------------------------------------------------------------

------------------------------------------------------------------
----5--8--5---------5--8--5----------4--7--4--------4--7--4-------
-6---------------6----------------5--------------5----------------
------------------------------------------------------------------

Ahora solo se ollen voces acompañadas por el bajo:

....... Seguiremos bebiendo y fumando que es mas sano ........

------------------------------------------------------------------
-4-5--------2-3--------0-1-------------------0--0---0-0-0-0-------
------------------------------------------------------------------
------------------------------------------------------------------

------------------------------------------------------------------
-----8--12--8--------8--12--8-------7--10--7--------7--10--7------
-10--------------10--------------8---------------8----------------
------------------------------------------------------------------

------------------------------------------------------------------
----5--8--5---------5--8--5----------4--7--4--------4--7--4-------
-6---------------6----------------5--------------5----------------
------------------------------------------------------------------

Espero que os guste, como siempre digo para kualkier cosa mandarme un mail
o agregadme al MSN:

Eduardo A.M (huntter86@
Suggest correction
Give kudos to tab author, rate the tab!
1 2 3 4 5
comments
print report bad tab
guest
Wanna post a correction for this tab? Suggest correction