Oops, an error
Loading. Please wait.

Naturarekin Bat Bass Tab

56 views 1 this week
no commentswrite comment
1 2 3 4 5
3 more votes to show rating
add to favorites
launch autoscroll
font size
0
reset
guitar tuner
Autoscroll
slow
fast
+/-
esc
set tempo
stop
Help us to improve Ultimate-Guitar.com Take our survey!
×
Estrofa: Ska musikak...

G|-----------------------------
D|----2-----------3-2-0--------x4
A|-3---5-3-2-----3-----3-2-5---
E|--3-------5-3-1--------------

Coro: Naturarekin bat...

G|---------2------------------
D|---2----2-2-3---------------x3
A|-3---5-2-------0-3--2-5-2---
E|--3-----------1----3--------

G|---------2------------------
D|---2----2-2-3---------------x1
A|-3---5-2----------0-3-------
E|--3-----------11-3---3------

Estrofa: Kingston jamaikan...

G|-----------------------------
D|----2-----------3-2-0--------x4
A|-3---5-3-2-----3-----3-2-5---
E|--3-------5-3-1--------------

Coro: Naturarekin bat

G|---------2------------------
D|---2----2-2-3---------------x3
A|-3---5-2-------0-3--2-5-2---
E|--3-----------1----3--------

G|---------2------------------
D|---2----2-2-3---------------x1
A|-3---5-2----------0-3-------
E|--3-----------11-3---3------

Solo : se repite el coro

Estrofa: x2

Puente: -Berotzera? Hemen kaskamotz...

G|-----------------0------------------------
D|-----------233332-------------233332-5320-
A|-3333-3---------------3333-3--------3-----
E|-----3--------------------3---------------

Coro: x4

Variacion coro: parte sin bateria.

G|---------------------
D|--2-----2------------x2
A|-3-5-2-3-3--03---252-
E|-----------1--1-3----

Y termina con el coro.

Eso es todo saludos =D
Suggest correction
Give kudos to tab author, rate the tab!
1 2 3 4 5
comments
print report bad tab
guest
You may want to rate the tab now too:
select rating
Wanna post a correction for this tab? Suggest correction