Oops, an error
Loading. Please wait.

Puto Alcohol Bass Tab

131 views 1 this week
no commentswrite comment
1 2 3 4 5
3 more votes to show rating
add to favorites
launch autoscroll
font size
0
reset
guitar tuner
×
Best way to learn
"Puto Alcohol"
Autoscroll
slow
fast
+/-
esc
set tempo
stop
NOTA IMPORTANTE: los tabs estan cortados ;) hay que
unirlos en otro programa para una mayor comodidad ;)

Intro:
G:----------------------|
D:----------------------|x4
A:----557788-77575------|
E:-577------------7-----|

La noche a empezado ..............................
G:-------------------------------------------------
D:-------------------------------------------------
A:----557788-77575----557788-77575----557788-77575-
E:-577------------7577------------7577------------7

Aayy .... ay.....
--------------------|
--------------------|x1
-----5-7-8-7-5-7-5--|
-5-7--------------7-|

Tu piernas no estan quietas ......................Oh
G:---------------------------------------------------
D:---------------------------------------------------
A:----557788-77575----557788-77575----557788-77575---
E:-577------------7577------------7577------------7--

 la fiesta a empezado...............Puto alcohol va!
------------------------------------------------|
--4-7---6-9---------------4-7---6-9-------------|x1
5-----7-------4-7-------5-----7-------4-7-------|
------------5-----3-2-0-------------5-----3-2-0-|

Puto alcohol ....
G:------------------------------|
D:---------------5---5-2-0------|x3
A:---7-----7---------------4----|
E:-5---5-4---4-2---2------------|

(Fin coro) Te pasas un buen rato !
|-------------------------|
|---------------5---5----2|x1
|---7-----7------------0--|
|-5---5-4---4-2---2-------|

Muy cerca hay una puerta .........................
G:-------------------------------------------------
D:-------------------------------------------------
A:----557788-77575----557788-77575----557788-77575-
E:-577------------7577------------7577------------7

Aayy .... ay.....
--------------------|
--------------------|x1
-----5-7-8-7-5-7-5--|
-5-7--------------7-|

Te ofrece una botella..............................Oh
G:---------------------------------------------------
D:---------------------------------------------------
A:----557788-77575----557788-77575----557788-77575---
E:-577------------7577------------7577------------7--

la fiesta a empezado .............Puto alcohol va!
------------------------------------------------|
--4-7---6-9---------------4-7---6-9-------------|x1
5-----7-------4-7-------5-----7-------4-7-------|
------------5-----3-2-0-------------5-----3-2-0-|

Puto alcohol ....
G:------------------------------|
D:---------------5---5-2-0------|x3
A:---7-----7---------------4----|
E:-5---5-4---4-2---2------------|

(Fin coro) Te pasas un buen rato !
|-------------------------|
|---------------5---5----2|x1
|---7-----7------------0--|
|-5---5-4---4-2---2-------|
(con metales) Puto alcohol .........................
G:-------------------------------------------------
D:-------------------------------------------------
A:----557788-77575----557788-77575----557788-77575-
E:-577------------7577------------7577------------7

Aayy .... ay.....
--------------------|
--------------------|x1
-----5-7-8-7-5-7-5--|
-5-7--------------7-|
(Con metales) .......................................
G:---------------------------------------------------
D:---------------------------------------------------
A:----557788-77575----557788-77575----557788-77575---
E:-577------------7577------------7577------------7--

........LolololololololoLOLO.....................
------------------------------------------------|
--4-7---6-9---------------4-7---6-9-------------|x1
5-----7-------4-7-------5-----7-------4-7-------|
------------5-----3-2-0-------------5-----3-2-0-|


fin :)

Quiero bailar ska !!!!

Hecho por Claudio Zicavo claudiocamilo68@
Suggest correction
Give kudos to tab author, rate the tab!
1 2 3 4 5
comments
print report bad tab
guest
You may want to rate the tab now too:
select rating
Wanna post a correction for this tab? Suggest correction