Oops, an error
Loading. Please wait.

Solo Vivir Bass

391 views 1 this week
no commentswrite comment
1 2 3 4 5
3 more votes to show rating
add to favorites
launch autoscroll
font size
0
reset
guitar tuner
×
Best way to learn
"Solo Vivir"
Autoscroll
slow
fast
+/-
esc
set tempo
stop
Intro:

G----------------------------------------|
D-----1-2--2---------------------1--1-2--|
A-2-4--------2--2-3--3------2--2---------|
E----------------------5--5--------------|

G----------------------------------------|
D-----1-2--2---------------------1--2----|
A-2-4--------2--2-3--3------2--2------2--|
E----------------------5--5--------------|

Riff:

   Mim                   Lam                   SiM              Mim
G----------------------|--------------------|----------------|-----------------------|
D----------------------|--------------------|----------------|-----------------------|
A--------2-2------2-2--|------7-7------7-7--|------9-9---9-9-|-----------------------|
E-7s0--0-----0--0------|-5--5-----5--5------|-7--7-----7-----|-0-0--3-3--5-5--7-7--0-|
   Mim                   Lam                   SiM              Mim
G----------------------|--------------------|----------------|-----------------------|
D----------------------|--------------------|----------------|-----------------------|
A--------2-2------2-2--|------7-7------7-7--|------9-9---9-9-|-----------------------|
E-7s0--0-----0--0------|-5--5-----5--5------|-7--7-----7-----|-0-0--3-3--5-5--7-7----|
  Mim
G--------------------|
D------5-5--7-7--9-9-|
A-7-7----------------|
E--------------------|

Empieza el verso igual:
   Mim                   Lam                   SiM              Mim
G-----------------|--------------------|----------------|--------------------|
D-----------------|--------------------|----------------|--------------------|
A---2-2------2-2--|------7-7------7-7--|------9-9---9-9-|--------------------|
E-0-----0--0------|-5--5-----5--5------|-7--7-----7-----|-0-0--3-3--5-5--7-7-|
  Mim
G--------------------|
D------5-5--7-7--9-9-|
A-7-7----------------|
E--------------------|
      Mim                   Lam               SiM                 Mim
G-----------------|--------------------|----------------|-----------------------|
D-----------------|--------------------|----------------|-----------------------|
A---2-2------2-2--|------7-7------7-7--|------9-9---9-9-|-----------------------|
E-0-----0--0------|-5--5-----5--5------|-7--7-----7-----|-0-0--3-3--5-5--7-7--0-|

Riff:

  Mim                   Lam                   SiM              Mim
G----------------------|--------------------|----------------|-----------------------|
D----------------------|--------------------|----------------|-----------------------|
A--------2-2------2-2--|------7-7------7-7--|------9-9---9-9-|-----------------------|
E-7s0--0-----0--0------|-5--5-----5--5------|-7--7-----7-----|-0-0--3-3--5-5--7-7--0-|
  Mim                   Lam                   SiM              Mim
G----------------------|--------------------|----------------|-----------------------|
D----------------------|--------------------|----------------|-----------------------|
A--------2-2------2-2--|------7-7------7-7--|------9-9---9-9-|-----------------------|
E-7s0--0-----0--0------|-5--5-----5--5------|-7--7-----7-----|-0-0--3-3--5-5--7-7----|
  Mim
G--------------------|
D------5-5--7-7--9-9-|
A-7-7----------------|
E--------------------|

Verso:
  Mim                   Lam                   SiM              Mim
G------------------|--------------------|----------------|--------------------|
D------------------|--------------------|----------------|--------------------|
A----2-2------2-2--|------7-7------7-7--|------9-9---9-9-|--------------------|
E--0-----0--0------|-5--5-----5--5------|-7--7-----7-----|-0-0--3-3--5-5--7-7-|
  Mim
G--------------------|
D------5-5--7-7--9-9-|
A-7-7----------------|
E--------------------|
  Mim                   Lam                   SiM              Mim
G-----------------|--------------------|----------------|-----------------------|
D-----------------|--------------------|----------------|-----------------------|
A---2-2------2-2--|------7-7------7-7--|------9-9---9-9-|-----------------------|
E-0-----0--0------|-5--5-----5--5------|-7--7-----7-----|-0-0--3-3--5-5--7-7--0-|

Riff:
  Mim                   Lam                   SiM              Mim
G----------------------|--------------------|----------------|-----------------------|
D----------------------|--------------------|----------------|-----------------------|
A--------2-2------2-2--|------7-7------7-7--|------9-9---9-9-|-----------------------|
E-7s0--0-----0--0------|-5--5-----5--5------|-7--7-----7-----|-0-0--3-3--5-5--7-7--0-|
  Mim                   Lam                   SiM              Mim
G----------------------|--------------------|----------------|-----------------------|
D----------------------|--------------------|----------------|-----------------------|
A--------2-2------2-2--|------7-7------7-7--|------9-9---9-9-|-----------------------|
E-7s0--0-----0--0------|-5--5-----5--5------|-7--7-----7-----|-0-0--3-3--5-5--7-7----|
    Mim
G-------------------|
D-------------------|
A-----------2-2-----|
E-0-0--3-3------3-3-|

Intermedio:

  ReM              SolM              ReM              SolM
G--------|-------|--------|--------|--------|-------|--------|-------------------|
D----4-7-|-------|--------|--------|----4-7-|-------|--------|-------------------|
A-5------|-5-4-2-|----2-5-|----2-5-|-5------|-5-4-2-|----2-5-|-------------------|
E--------|-------|-3------|-3------|--------|-------|-3------|-3-3-3-3-5-7-7-----|
    SiM                 SolM            Lam       SiM         Mim       SolM
G------------------|-----------------|---------|---------|-----------|-----------|
D------------------|-----------------|---------|---1-4-1-|-2-2-2-2---|-----------|
A---6-9-6----6-9-6-|-----------------|---3-7-3-|-2-------|---------2-|-----2-----|
E-7--------7-------|-3--7-5-3--7-5-3-|-5-------|---------|-----------|-3-3---3-0-|
      ReM                           SolM                  ReM
G-----7------7------7------7-|-------------------|-----7------7------7------7----|
D----------------------------|-------------------|-------------------------------|
A-5-5----5-5----5-5----5-5---|---2-5-2-----------|-5-5----5-5----5-5----5-5------|
E----------------------------|-3--------3--5-6-7-|-------------------------------|
        SolM              SiM                 SolM           Lam       SiM
G-------------------|------------------|-----------------|---------|------------|
D-------------------|------------------|-----------------|---------|---1-4-1----|
A---2-5-2-----------|---6-9-6----6-9-6-|-----------------|---3-7-3-|-2----------|
E-3--------3--5-6-7-|-7--------7-------|-3--5-7-5--7-5-3-|-5-------|------------|

G-----------|-----|
D-2-2-2-2---|-----|
A---------2-|-----|
E-----------|-3-0-|

Riff:

G-----------------|-----------------|---------------------|----------------------|
D-----------------|-----------------|---------------------|----------------------|
A-----4-4-----4-4-|-----9-9-----9-9-|-----11-11-----11-11-|------0-0--2-2--4-4---|
E-9s2-----2-2-----|-7-7-----7-7-----|-9-9-------9-9-------|-2-2----------------2-|

G-----------------|-----------------|---------------------|----------------------|
D-----------------|-----------------|---------------------|----------------------|
A-----4-4-----4-4-|-----9-9-----9-9-|-----11-11-----11-11-|------0-0--2-2--4-4---|
E-9s2-----2-2-----|-7-7-----7-7-----|-9-9-------9-9-------|-2-2------------------|

G--------------------|
D--------------------|
A------0-0--2-2--4-4-|
E-2-2----------------|

Final:

G-------|-------|---------|---------|-------|-------|-------------------|-------|-------|
D---3-6-|-------|---------|---------|---3-6-|-------|-5---3---3---------|---3-6-|-------|
A-4-----|-4-3-0-|---2-5-2-|---2-5-2-|-4-----|-4-3-0-|---5---5---5-3-----|-4-----|-4-3-0-|
E-------|-------|-3-------|-3-------|-------|-------|---------------5-3-|-------|-------|

G-----2---------|-------|-------|-----------------------|
D---2---4-2-----|---3-6-|-------|-----------------------|
A-----------4---|-4-----|-4-3-0-|------0-0--2-2--4-4----|
E-3-----------4-|-------|-------|-2-2-----------------2-|
      | |__\
      |____  No estoy muy seguro de esto
           /

Bueno eso es todo

               CHAOOO!!!!!!!!
Suggest correction
Give kudos to tab author, rate the tab!
1 2 3 4 5
comments
print report bad tab
guest
You may want to rate the tab now too:
select rating
Wanna post a correction for this tab? Suggest correction