Oops, an error
Loading. Please wait.

Make A Change Bass Tab

52 views 1 this week
no commentswrite comment
1 2 3 4 5
please rate
add to favorites
launch autoscroll
font size
0
reset
guitar tuner
Tab Pro tools
  • play this tab
  • loop segment
  • change instrument
  • show fretboard
  • metronome
Autoscroll
slow
fast
+/-
esc
set tempo
stop
----------------------------------------------------------------------
                                          Make a Change - Skankin' Pickle
----------------------------------------------------------------------
Tabbed by: 
E-mail: 

Tuning:EADG

Intro
G|-------------------------------------------------------------------|
D|-------------------------------------------------------------------|
A|-----14---9---8---4---7----8---3-----------------------------------|
E|-------------------------------------------------------------------|

Verse
G|-------------------------------------------------------------------|
D|-------1-1-2-2-4--456-4---456----------1-1-2-2-4--456-4--456-------|
A|----2-2-----------------6-----6-----2-2----------------6-----6-----|
E|--------------------------------7------------------------------7---|

Chorus
G|-----------------------------------------|-------------------------|
D|----------------------------------------o|-------------------------|
A|---3/10\3---4>>--2>>------4>>--2>>--7>>-o|--77--7777--7777-7-7-----|
E|----------------------0>>----------------|-------------------------|

comments
We did not receive enough feedback on this tab! Please rate:
print report bad tab
1 2 3 4 5
I want to post or [tab]
guest
You may want to rate the tab now too:
select rating
Please do not post tabs as comments. Select "correction" instead!