Oops, an error
Loading. Please wait.

Libres Tab

41 views 1 this week
no commentswrite comment
1 2 3 4 5
3 more votes to show rating
add to favorites
launch autoscroll
font size
0
reset
how to read this tab
guitar tuner
×
Best way to learn
"Libres"
Autoscroll
slow
fast
+/-
esc
set tempo
stop
Intro:

D|---------------------------------|
A|-0-0-0-0-7-0-0-0-7-0-0-5-3-|
E|---------------------------------|

   A5        E5   E5  D5 C5          D5
G|-----------9/---9-9-7---5--|    G|-7--|
D|-7-7-7-7---9/---9-9-7---5--| x4 D|-7--|
A|-7-7-7-7---7/---7-7-5---3--|    A|-5--|
E|-5-5-5-5-------------------|    E|----|

Verso:

A5~
Muros en la sociedad,
van encerrando nuestra libertad,
haciéndonos pensar,
que solos podemos caminar.

   A5        E5   E5  D5 C5          D5
G|-----------9/---9-9-7---5--|    G|-7--|
D|-7-7-7-7---9/---9-9-7---5--| x4 D|-7--|
A|-7-7-7-7---7/---7-7-5---3--|    A|-5--|
E|-5-5-5-5-------------------|    E|----|

(Durante los próximos versos, hace éste riff)

G|-----------1-1----------------------------|
D|-0-0-2h3-------2h3--3-3-2h3--2-2-2h3p2p0--|
A|------------------------------------------|
E|------------------------------------------|

Muros en la sociedad,
van encerrando nuestra libertad,
haciéndonos pensar,
que solos podemos caminar.

La corriente de lo injusto
va matando la fe.
Las mentiras bien planeadas,
ya nos pasan por encima.

Estribillo:

F5                         A5
¿Y quién podrá librarnos de ésta enfermedad?
F5
Sólo tu, oh Dios,
G5
puedes hacernos,

¡Libres!


(Repite todo)

Puente, solo, como quieran (acá va todo más rápido):

G|----------------------------------------------|
D|----------------------------------------------| x3
A|-0-0-0-2-0-0-3-0-0-5-0-0-3-0-0-2-0-0-3-0-0-5v-|
E|----------------------------------------------|

G|-----------------------------------------------|
D|-----------------------------------------------|
A|-0-0-0-2-0-0-3-0-0-5-0-0-7-0-0-8-0-0-10-0-0-8v-|
E|-----------------------------------------------|


G|----------------------------------------------|
D|----------------------------------------------| x2
A|-0-0-0-2-0-0-3-0-0-5-0-0-3-0-0-2-0-0-3-0-0-5v-|
E|----------------------------------------------|

G|---------------------------------|-------------------------2h3p2---------|
D|---------------------------------|-------------0h2h3-2h3h5-------3p2p0---|
A|-------2-------3-------5-------3-|-0h2h3-2h3h5-------------------------0-|
E|-1-1-1---1-1-1---1-1-1---1-1-1---|---------------------------------------|

G|----------------------------------------------|
D|----------------------------------------------| x2
A|-0-0-0-2-0-0-3-0-0-5-0-0-3-0-0-2-0-0-3-0-0-5v-|
E|----------------------------------------------|

G|---------------------------------|-------------------------2h3p2---------|
D|---------------------------------|-------------0h2h3-2h3h5-------3p2p0---|
A|-------2-------3-------5-------3-|-0h2h3-2h3h5-------------------------0-|
E|-1-1-1---1-1-1---1-1-1---1-1-1---|---------------------------------------|

Estribillo:

F5~                        A5
¿Y quién podrá librarnos de ésta enfermedad?
F5
Sólo tu, oh Dios,
G5
puedes hacernos,

¡Libres!

   A5        E5   E5  D5 C5
G|-----------9/---9-9-7---5--|
D|-7-7-7-7---9/---9-9-7---5--| x4
A|-7-7-7-7---7/---7-7-5---3--|
E|-5-5-5-5-------------------|

  D5   E5   F5   G5  A5  E5 D5  C5   B5   A5
G|-7----9---10---12-|----9---7---5---4--------|
D|-7----9---10---12-|-7--9---7---5---4----7~--|
A|-5----7---8----10-|-7--7---5---3---2----7~--|
E|------------------|-5-------------------5~--|


Eso es todo. Creo que está bien, pero no estoy seguro la parte rápida del solo.
Suerte!
Suggest correction
Give kudos to tab author, rate the tab!
1 2 3 4 5
comments
print report bad tab
guest
You may want to rate the tab now too:
select rating
Wanna post a correction for this tab? Suggest correction