Oops, an error
Loading. Please wait.

Abajo En El Sur Bass

29 views 1 this week
no commentswrite comment
1 2 3 4 5
3 more votes to show rating
add to favorites
×
Save as Personal and add changes to this tab that will be seen only by you. Learn more ›
×
You can save this tab as Personal to edit and correct it or add notes. All changes will be seen only by you. Learn more »
save as personal
new!
launch autoscroll
font size
0
reset
guitar tuner
Autoscroll
slow
fast
+/-
esc
set tempo
stop
Intro:
      Si m        Re            La          Sol      La
   G---------/-----------/--------------/---------/---------
   D---------/---7-5-----/--------------/---------/---------
   A---------/-5-----7-5-/--------------/---------/---------
   E-7-7-7---/-----------/-5-5-5--5-5-5-/-3-3-3-3-/-5-5-5-5-

 un buen negocio...

     Si m       Re             La           Sol      La
   G---------/-----------/--------------/---------/---------
   D---------/---7-5-----/--------------/---------/---------
   A---------/-5-----7-5-/--------------/---------/---------
   E-7-7-7---/-----------/-5-5-5--5-5-5-/-3-3-3-3-/-5-5-5-5-


Parte ska:
          Si m            Re              La           Sol     La
   G---------------/---------------/---------------/--------/-------
   D------4------4-/----4-7----4-7-/---------------/--------/-------
   A----5------5---/-5------5------/----4-7----4-7-/----2---/---2---
   E-7------7------/---------------/-5------5------/-3----3-/-3---3-


Estribillo:
         Si m                Re               La
   G-----------------/-----------------/-----------------
   D-----------------/-----------------/-----------------
   A-----------------/-5-5-5-5-5-5-5-5-/-----------------
   E-7-7-7-7-7-7-7-7-/-----------------/-5-5-5-5-5-5-5-5-

   G---------/---------
   D---------/---------
   A---------/---------
   E-3-3-3-3-/-5-5-5-5-


Bueno esto es lo que pude sacar del tema...hay que considerar
 que aca en Uruguay no existe Skaparapid y lo unico que tengo
es un viejo casette que no suena muy bien...espero les sirva.
Dentro de poco sera correjida...
Suggest correction
Give kudos to tab author, rate the tab!
1 2 3 4 5
comments
print report bad tab
guest
Wanna post a correction for this tab? Suggest correction