Oops, an error
Loading. Please wait.

Desvelos Chords

2 views 1 this week
no commentswrite comment
1 2 3 4 5
3 more votes to show rating
add to favorites
launch autoscroll
font size
0
reset
transpose
0
reset
display chords
guitar tuner
×
Best way to learn
"Desvelos"
Autoscroll
slow
fast
+/-
esc
set tempo
stop
Intro:
e ----6-4-7-5-8-6-9--
B -------------------
G -------------------
D -55----------------
A -55----------------
E -33----------------


Fig1. E - F# - G* - F#
Fig2. D - E - F - E


Fig1.
Teneis inteligencia y no la podeis usar

Fig2.
estais ahi pero no se os ve no teneis ni voz ni voto

Fig1.
maltratada sicologicamente vivis sin estar vivas cohibidas

Fig2.
admirable vuestra fuerza para luchar


G*  D  G*  F


G   G#    A      A#

Ojala un dia podais
revelaros de verdad
destruyendo el fusil
destruyendo la autoridad


Fig1.
Reuniones clandestinas teneis que hacer

Fig2.
para poder ayudaros todas como mujer

Fig1.
vuestras hija dependen de lo ke podais obtener

Fig2.
con vuestro empeño ven ke no os rendireis


G*  D  G*  F


**Intermedio**

e ----6-5-4-1-2-3--8-7-6-5--11-10-9-8-
B ------------------------------------
G ------------------------------------
D -55---------------------------------
A -55---------------------------------
E -33---------------------------------


Fig1.
Que supliken el perdon con lagrimas en los ojos

Fig2.
que se den cuenta ellos mismos que lo experimenten

Fig1.
el horror que habeis vivio durante siglos

Fig2.
seguro que ellos no lo podrian soportar


G   G#    A      A#

Ojala un dia podais
revelaros de verdad
destruyendo el fusil
destruyendo la autoridad


G   G#    A      A#

Ojala un dia podais
(revelaros de verdad)
Ojala un dia podais
(destruir el fusil)
Ojala un dia podais
(destruir la autoridad)

   E   F#    G*    D    G   G#    A   G#
e -7-  -9-  -10-  -5-  ---  ---  ---  ---
B -7-  -9-  -10-  -5-  ---  ---  ---  ---
G ---  ---  ----  ---  ---  ---  ---  ---
D ---  ---  ----  ---  -5-  -6-  -7-  -8-
A ---  ---  ----  ---  -5-  -6-  -7-  -8-
E ---  ---  ----  ---  -3-  -4-  -5-  -6-

..Otra buena kancion de Skaparapid defendiendo la dignidad
de las mujeres!..
Suggest correction
Give kudos to tab author, rate the tab!
1 2 3 4 5
comments
print report bad tab
guest
You may want to rate the tab now too:
select rating
Wanna post a correction for this tab? Suggest correction